  0
SECTION
  2
HEADER
  9
$ACADVER
  1
AC1009
  9
$INSBASE
 10
0.0
 20
0.0
 30
0.0
  9
$EXTMIN
 10
0
 20
-0.084409
 30
0
  9
$EXTMAX
 10
1.4
 20
0.0255
 30
1.148
  0
ENDSEC
  0
SECTION
  2
TABLES
  0
TABLE
  2
LTYPE
 70
     2
  0
LTYPE
  2
CONTINUOUS
 70
    64
  3
________
 72
    65
 73
     0
 40
0.0
  0
LTYPE
  2
DASHED
 70
     0
  3
__ __ __
 72
    65
 73
     2
 40
0.75
 49
0.5
 49
-0.25
  0
LTYPE
  2
DOT
 70
     0
  3
. . . .
 72
    65
 73
     2
 40
0.25
 49
0.0
 49
-0.25
  0
LTYPE
  2
DASHDOT
 70
     0
  3
_ . _ .
 72
    65
 73
     4
 40
1.0
 49
0.5
 49
-0.25
 49
-0.0
 49
-0.25
  0
LTYPE
  2
DASHDOUBLEDOT
 70
     0
  3
__..__..
 72
    65
 73
     6
 40
1.25
 49
0.5
 49
-0.25
 49
-0.0
 49
-0.25
 49
-0.0
 49
-0.25
  0
LTYPE
  2
DASHTRIPLEDOT
 70
     0
  3
__...__...__
 72
    65
 73
     8
 40
1.5
 49
0.5
 49
-0.25
 49
-0.0
 49
-0.25
 49
-0.0
 49
-0.25
 49
-0.0
 49
-0.25
  0
ENDTAB
  0
TABLE
  2
LAYER
 70
    54
  0
LAYER
  2
0
 70
    64
 62
     7
  6
CONTINUOUS
  0
LAYER
  2
72_GSX_BS_D2SNAP
 70
    64
 62
     7
  6
CONTINUOUS
  0
LAYER
  2
72_GSX_BS_D2_SYMBOL
 70
    64
 62
     7
  6
CONTINUOUS
  0
LAYER
  2
72_GSX_BS_D2_GRAPHIK
 70
    64
 62
     7
  6
CONTINUOUS
  0
LAYER
  2
72_GSX_BS_D2_TEXT_DE
 70
    64
 62
     7
  6
CONTINUOUS
  0
LAYER
  2
AttachPoint
 70
    64
 62
     7
  6
CONTINUOUS
  0
LAYER
  2
72_GSX_ZU_D2SNAP
 70
    64
 62
     7
  6
CONTINUOUS
  0
LAYER
  2
72_GSX_ZU_D2DETAIL_DETAIL
 70
    64
 62
     7
  6
CONTINUOUS
  0
LAYER
  2
72_GSX_BS_D2DETAIL_DETAIL
 70
    64
 62
     7
  6
CONTINUOUS
  0
LAYER
  2
72_GSX_ZU_D2_GRAPHIK
 70
    64
 62
     7
  6
CONTINUOUS
  0
LAYER
  2
72_GSX_BE_D2SNAP
 70
    64
 62
     7
  6
CONTINUOUS
  0
LAYER
  2
72_GSX_BE_D2DETAIL_DETAIL
 70
    64
 62
     7
  6
CONTINUOUS
  0
LAYER
  2
72_GSX_BE_D2_GRAPHIK
 70
    64
 62
     7
  6
CONTINUOUS
  0
LAYER
  2
GRAFIKDETAIL
 70
    64
 62
     7
  6
CONTINUOUS
  0
LAYER
  2
GRAFIK
 70
    64
 62
     7
  6
CONTINUOUS
  0
LAYER
  2
FANG
 70
    64
 62
     7
  6
CONTINUOUS
  0
LAYER
  2
72_GSX_SW_D2SNAP
 70
    64
 62
     7
  6
CONTINUOUS
  0
LAYER
  2
72_GSX_SW_D2_GRAPHIK
 70
    64
 62
     7
  6
CONTINUOUS
  0
LAYER
  2
72_GSX_SW_D2_TEXT
 70
    64
 62
     7
  6
CONTINUOUS
  0
LAYER
  2
72_GSX_SW_D2DETAIL_DETAIL
 70
    64
 62
     7
  6
CONTINUOUS
  0
LAYER
  2
0
 70
    64
 62
     7
  6
CONTINUOUS
  0
LAYER
  2
72_GSX_CO_D2SNAP
 70
    64
 62
     7
  6
CONTINUOUS
  0
LAYER
  2
72_GSX_CO_D2_GRAPHIK
 70
    64
 62
     7
  6
CONTINUOUS
  0
LAYER
  2
72_GSX_CO_D2_TEXT_DE
 70
    64
 62
     7
  6
CONTINUOUS
  0
LAYER
  2
72_GSX_CO_D2DETAIL_DETAIL
 70
    64
 62
     7
  6
CONTINUOUS
  0
LAYER
  2
72_GSX_EL_D2_GRAPHIK
 70
    64
 62
     7
  6
CONTINUOUS
  0
LAYER
  2
72_GSX_EL_D2SNAP
 70
    64
 62
     7
  6
CONTINUOUS
  0
LAYER
  2
72_GSX_TH_D2SNAP
 70
    64
 62
     7
  6
CONTINUOUS
  0
LAYER
  2
72_GSX_TH_D2_GRAPHIK
 70
    64
 62
     7
  6
CONTINUOUS
  0
LAYER
  2
72_GSX_TH_D2DETAIL_DETAIL
 70
    64
 62
     7
  6
CONTINUOUS
  0
LAYER
  2
72_GSX_IV_D2SNAP
 70
    64
 62
     7
  6
CONTINUOUS
  0
LAYER
  2
72_GSX_IV_D2DETAIL_DETAIL
 70
    64
 62
     7
  6
CONTINUOUS
  0
LAYER
  2
72_GSX_IV_D2_GRAPHIK
 70
    64
 62
     7
  6
CONTINUOUS
  0
LAYER
  2
72_GSX_ZL_D2_GRAPHIK
 70
    64
 62
     7
  6
CONTINUOUS
  0
LAYER
  2
72_GSX_ZL_D2SNAP
 70
    64
 62
     7
  6
CONTINUOUS
  0
LAYER
  2
72_GSX_LT_D2SNAP
 70
    64
 62
     7
  6
CONTINUOUS
  0
LAYER
  2
72_GSX_LT_D2DETAIL_DETAIL
 70
    64
 62
     7
  6
CONTINUOUS
  0
LAYER
  2
72_GSX_LT_D2_GRAPHIK
 70
    64
 62
     7
  6
CONTINUOUS
  0
LAYER
  2
72_GSX_RS_D2SNAP
 70
    64
 62
     7
  6
CONTINUOUS
  0
LAYER
  2
72_GSX_RS_D2_GRAPHIK
 70
    64
 62
     7
  6
CONTINUOUS
  0
LAYER
  2
72_GSX_RS_D2_TEXT_DE
 70
    64
 62
     7
  6
CONTINUOUS
  0
LAYER
  2
72_GSX_RS_D2_SYMBOL
 70
    64
 62
     7
  6
CONTINUOUS
  0
LAYER
  2
72_GSX_RL_D2SNAP
 70
    64
 62
     7
  6
CONTINUOUS
  0
LAYER
  2
72_GSX_RL_D2DETAIL_DETAIL
 70
    64
 62
     7
  6
CONTINUOUS
  0
LAYER
  2
72_GSX_RL_D2_GRAPHIK
 70
    64
 62
     7
  6
CONTINUOUS
  0
LAYER
  2
72_GSX_ST_D2SNAP
 70
    64
 62
     7
  6
CONTINUOUS
  0
LAYER
  2
72_GSX_ST_D2_GRAPHIK
 70
    64
 62
     7
  6
CONTINUOUS
  0
LAYER
  2
72_GSX_ST_D2DETAIL_DETAIL
 70
    64
 62
     7
  6
CONTINUOUS
  0
LAYER
  2
72OFGO3D01_ANY
 70
    64
 62
     1
  6
CONTINUOUS
  0
LAYER
  2
72OFGO3D01_ANY
 70
    64
 62
     1
  6
CONTINUOUS
  0
LAYER
  2
72OFGO3D01_WP__CONNECTOR__119
 70
    64
 62
     1
  6
CONTINUOUS
  0
LAYER
  2
72OFGO3D01_WP__COVER__233
 70
    64
 62
     1
  6
CONTINUOUS
  0
LAYER
  2
72OFGO3D01_WP__FRAME__233
 70
    64
 62
     1
  6
CONTINUOUS
  0
LAYER
  2
72OFGO2D01_GRAFIK
 70
    64
 62
     1
  6
CONTINUOUS
  0
ENDTAB
  0
TABLE
  2
STYLE
 70
     1
  0
STYLE
  2
STANDARD
 70
     0
 40
0.0
 41
1.0
 50
0.0
 71
     0
 42
0.2
  3
txt
  4

  0
ENDTAB
  0
TABLE
  2
APPID
 70
    64
  0
APPID
  2
ACAD
 70
    64
  0
APPID
  2
OFML_10
 70
    64
  0
ENDTAB
  0
ENDSEC
  0
SECTION
  2
BLOCKS
  0
BLOCK
  8
0
  2
OB__000000
 70
    64
 10
0.0
 20
0.0
 30
0.0
  3
OB__000000
  0
POLYLINE
  8
72OFGO3D01_ANY
 66
     1
 70
    64
 71
8
 72
24
 10
0.0
 20
0.0
 30
0.0
  0
VERTEX
  8
72OFGO3D01_ANY
 10
1
 20
0
 30
1
 70
    192
  0
VERTEX
  8
72OFGO3D01_ANY
 10
0
 20
0
 30
1
 70
    192
  0
VERTEX
  8
72OFGO3D01_ANY
 10
1
 20
-0.019
 30
1
 70
    192
  0
VERTEX
  8
72OFGO3D01_ANY
 10
0
 20
-0.019
 30
1
 70
    192
  0
VERTEX
  8
72OFGO3D01_ANY
 10
1
 20
-0.019
 30
0
 70
    192
  0
VERTEX
  8
72OFGO3D01_ANY
 10
0
 20
-0.019
 30
0
 70
    192
  0
VERTEX
  8
72OFGO3D01_ANY
 10
1
 20
0
 30
0
 70
    192
  0
VERTEX
  8
72OFGO3D01_ANY
 10
0
 20
0
 30
0
 70
    192
  0
VERTEX
  8
72OFGO3D01_ANY
 10
0.0
 20
0.0
 30
0.0
 70
   128
 62
  254
 71
  1
 72
  2
 73
  3
  0
VERTEX
  8
72OFGO3D01_ANY
 10
0.0
 20
0.0
 30
0.0
 70
   128
 62
  254
 71
 -3
 72
 -2
 73
 -1
  0
VERTEX
  8
72OFGO3D01_ANY
 10
0.0
 20
0.0
 30
0.0
 70
   128
 62
  254
 71
  2
 72
  4
 73
  3
  0
VERTEX
  8
72OFGO3D01_ANY
 10
0.0
 20
0.0
 30
0.0
 70
   128
 62
  254
 71
 -3
 72
 -4
 73
 -2
  0
VERTEX
  8
72OFGO3D01_ANY
 10
0.0
 20
0.0
 30
0.0
 70
   128
 62
  254
 71
  5
 72
  6
 73
  7
  0
VERTEX
  8
72OFGO3D01_ANY
 10
0.0
 20
0.0
 30
0.0
 70
   128
 62
  254
 71
 -7
 72
 -6
 73
 -5
  0
VERTEX
  8
72OFGO3D01_ANY
 10
0.0
 20
0.0
 30
0.0
 70
   128
 62
  254
 71
  6
 72
  8
 73
  7
  0
VERTEX
  8
72OFGO3D01_ANY
 10
0.0
 20
0.0
 30
0.0
 70
   128
 62
  254
 71
 -7
 72
 -8
 73
 -6
  0
VERTEX
  8
72OFGO3D01_ANY
 10
0.0
 20
0.0
 30
0.0
 70
   128
 62
  254
 71
  4
 72
  6
 73
  3
  0
VERTEX
  8
72OFGO3D01_ANY
 10
0.0
 20
0.0
 30
0.0
 70
   128
 62
  254
 71
 -3
 72
 -6
 73
 -4
  0
VERTEX
  8
72OFGO3D01_ANY
 10
0.0
 20
0.0
 30
0.0
 70
   128
 62
  254
 71
  6
 72
  5
 73
  3
  0
VERTEX
  8
72OFGO3D01_ANY
 10
0.0
 20
0.0
 30
0.0
 70
   128
 62
  254
 71
 -3
 72
 -5
 73
 -6
  0
VERTEX
  8
72OFGO3D01_ANY
 10
0.0
 20
0.0
 30
0.0
 70
   128
 62
  254
 71
  2
 72
  8
 73
  4
  0
VERTEX
  8
72OFGO3D01_ANY
 10
0.0
 20
0.0
 30
0.0
 70
   128
 62
  254
 71
 -4
 72
 -8
 73
 -2
  0
VERTEX
  8
72OFGO3D01_ANY
 10
0.0
 20
0.0
 30
0.0
 70
   128
 62
  254
 71
  8
 72
  6
 73
  4
  0
VERTEX
  8
72OFGO3D01_ANY
 10
0.0
 20
0.0
 30
0.0
 70
   128
 62
  254
 71
 -4
 72
 -6
 73
 -8
  0
VERTEX
  8
72OFGO3D01_ANY
 10
0.0
 20
0.0
 30
0.0
 70
   128
 62
  254
 71
  1
 72
  7
 73
  2
  0
VERTEX
  8
72OFGO3D01_ANY
 10
0.0
 20
0.0
 30
0.0
 70
   128
 62
  254
 71
 -2
 72
 -7
 73
 -1
  0
VERTEX
  8
72OFGO3D01_ANY
 10
0.0
 20
0.0
 30
0.0
 70
   128
 62
  254
 71
  7
 72
  8
 73
  2
  0
VERTEX
  8
72OFGO3D01_ANY
 10
0.0
 20
0.0
 30
0.0
 70
   128
 62
  254
 71
 -2
 72
 -8
 73
 -7
  0
VERTEX
  8
72OFGO3D01_ANY
 10
0.0
 20
0.0
 30
0.0
 70
   128
 62
  254
 71
  3
 72
  5
 73
  1
  0
VERTEX
  8
72OFGO3D01_ANY
 10
0.0
 20
0.0
 30
0.0
 70
   128
 62
  254
 71
 -1
 72
 -5
 73
 -3
  0
VERTEX
  8
72OFGO3D01_ANY
 10
0.0
 20
0.0
 30
0.0
 70
   128
 62
  254
 71
  5
 72
  7
 73
  1
  0
VERTEX
  8
72OFGO3D01_ANY
 10
0.0
 20
0.0
 30
0.0
 70
   128
 62
  254
 71
 -1
 72
 -7
 73
 -5
  0
SEQEND
  0
ENDBLK
  8
0
  0
BLOCK
  8
0
  2
OB__000001
 70
    64
 10
0.0
 20
0.0
 30
0.0
  3
OB__000001
  0
INSERT
  8
72OFGO3D01_ANY
  2
OB__000000
 10
0
 20
0.0255
 30
0.348
 41
1.4
 42
1
 43
0.781
  0
ENDBLK
  8
0
  0
BLOCK
  8
0
  2
OB__000002
 70
    64
 10
0.0
 20
0.0
 30
0.0
  3
OB__000002
  0
POLYLINE
  8
72OFGO3D01_WP__FRAME__233
 66
     1
 70
    64
 71
148
 72
584
 10
0.0
 20
0.0
 30
0.0
  0
VERTEX
  8
72OFGO3D01_WP__FRAME__233
 10
1
 20
0
 30
0.001
 70
    192
  0
VERTEX
  8
72OFGO3D01_WP__FRAME__233
 10
1
 20
-0.000134
 30
0.0005
 70
    192
  0
VERTEX
  8
72OFGO3D01_WP__FRAME__233
 10
0
 20
0
 30
0.001
 70
    192
  0
VERTEX
  8
72OFGO3D01_WP__FRAME__233
 10
0
 20
-0.000134
 30
0.0005
 70
    192
  0
VERTEX
  8
72OFGO3D01_WP__FRAME__233
 10
1
 20
-0.001
 30
0
 70
    192
  0
VERTEX
  8
72OFGO3D01_WP__FRAME__233
 10
0
 20
-0.0005
 30
0.000134
 70
    192
  0
VERTEX
  8
72OFGO3D01_WP__FRAME__233
 10
1
 20
-0.0005
 30
0.000134
 70
    192
  0
VERTEX
  8
72OFGO3D01_WP__FRAME__233
 10
0
 20
-0.001
 30
0
 70
    192
  0
VERTEX
  8
72OFGO3D01_WP__FRAME__233
 10
0
 20
0
 30
0.005
 70
    192
  0
VERTEX
  8
72OFGO3D01_WP__FRAME__233
 10
1
 20
0
 30
0.005
 70
    192
  0
VERTEX
  8
72OFGO3D01_WP__FRAME__233
 10
0
 20
-0.002075
 30
0
 70
    192
  0
VERTEX
  8
72OFGO3D01_WP__FRAME__233
 10
0
 20
-0.00241
 30
0.00125
 70
    192
  0
VERTEX
  8
72OFGO3D01_WP__FRAME__233
 10
0
 20
-0.003325
 30
0.002165
 70
    192
  0
VERTEX
  8
72OFGO3D01_WP__FRAME__233
 10
0
 20
-0.004575
 30
0.0025
 70
    192
  0
VERTEX
  8
72OFGO3D01_WP__FRAME__233
 10
0
 20
-0.0065
 30
0.005
 70
    192
  0
VERTEX
  8
72OFGO3D01_WP__FRAME__233
 10
0
 20
-0.005825
 30
0.002165
 70
    192
  0
VERTEX
  8
72OFGO3D01_WP__FRAME__233
 10
0
 20
-0.007075
 30
0
 70
    192
  0
VERTEX
  8
72OFGO3D01_WP__FRAME__233
 10
0
 20
-0.00875
 30
0
 70
    192
  0
VERTEX
  8
72OFGO3D01_WP__FRAME__233
 10
0
 20
-0.00674
 30
0.00125
 70
    192
  0
VERTEX
  8
72OFGO3D01_WP__FRAME__233
 10
0
 20
-0.00875
 30
-0.001
 70
    192
  0
VERTEX
  8
72OFGO3D01_WP__FRAME__233
 10
0
 20
-0.01025
 30
0
 70
    192
  0
VERTEX
  8
72OFGO3D01_WP__FRAME__233
 10
0
 20
-0.00807
 30
-0.001
 70
    192
  0
VERTEX
  8
72OFGO3D01_WP__FRAME__233
 10
0
 20
-0.009
 30
-0.0025
 70
    192
  0
VERTEX
  8
72OFGO3D01_WP__FRAME__233
 10
0
 20
-0.00807
 30
-0.0025
 70
    192
  0
VERTEX
  8
72OFGO3D01_WP__FRAME__233
 10
0
 20
-0.009
 30
-0.004
 70
    192
  0
VERTEX
  8
72OFGO3D01_WP__FRAME__233
 10
0
 20
-0.00807
 30
-0.004
 70
    192
  0
VERTEX
  8
72OFGO3D01_WP__FRAME__233
 10
0
 20
-0.009
 30
-0.0055
 70
    192
  0
VERTEX
  8
72OFGO3D01_WP__FRAME__233
 10
0
 20
-0.00807
 30
-0.0055
 70
    192
  0
VERTEX
  8
72OFGO3D01_WP__FRAME__233
 10
0
 20
-0.009
 30
-0.007
 70
    192
  0
VERTEX
  8
72OFGO3D01_WP__FRAME__233
 10
0
 20
-0.00807
 30
-0.007
 70
    192
  0
VERTEX
  8
72OFGO3D01_WP__FRAME__233
 10
0
 20
-0.009
 30
-0.0085
 70
    192
  0
VERTEX
  8
72OFGO3D01_WP__FRAME__233
 10
0
 20
-0.01
 30
-0.007
 70
    192
  0
VERTEX
  8
72OFGO3D01_WP__FRAME__233
 10
0
 20
-0.01
 30
-0.0055
 70
    192
  0
VERTEX
  8
72OFGO3D01_WP__FRAME__233
 10
0
 20
-0.01093
 30
-0.007
 70
    192
  0
VERTEX
  8
72OFGO3D01_WP__FRAME__233
 10
0
 20
-0.01
 30
-0.0085
 70
    192
  0
VERTEX
  8
72OFGO3D01_WP__FRAME__233
 10
0
 20
-0.01093
 30
-0.0055
 70
    192
  0
VERTEX
  8
72OFGO3D01_WP__FRAME__233
 10
0
 20
-0.01093
 30
-0.004
 70
    192
  0
VERTEX
  8
72OFGO3D01_WP__FRAME__233
 10
0
 20
-0.01
 30
-0.004
 70
    192
  0
VERTEX
  8
72OFGO3D01_WP__FRAME__233
 10
0
 20
-0.01093
 30
-0.0025
 70
    192
  0
VERTEX
  8
72OFGO3D01_WP__FRAME__233
 10
0
 20
-0.01
 30
-0.0025
 70
    192
  0
VERTEX
  8
72OFGO3D01_WP__FRAME__233
 10
0
 20
-0.01093
 30
-0.001
 70
    192
  0
VERTEX
  8
72OFGO3D01_WP__FRAME__233
 10
0
 20
-0.01025
 30
-0.001
 70
    192
  0
VERTEX
  8
72OFGO3D01_WP__FRAME__233
 10
0
 20
-0.011925
 30
0
 70
    192
  0
VERTEX
  8
72OFGO3D01_WP__FRAME__233
 10
0
 20
-0.01226
 30
0.00125
 70
    192
  0
VERTEX
  8
72OFGO3D01_WP__FRAME__233
 10
0
 20
-0.014425
 30
0.0025
 70
    192
  0
VERTEX
  8
72OFGO3D01_WP__FRAME__233
 10
0
 20
-0.014
 30
0.005
 70
    192
  0
VERTEX
  8
72OFGO3D01_WP__FRAME__233
 10
0
 20
-0.013175
 30
0.002165
 70
    192
  0
VERTEX
  8
72OFGO3D01_WP__FRAME__233
 10
0
 20
-0.015675
 30
0.002165
 70
    192
  0
VERTEX
  8
72OFGO3D01_WP__FRAME__233
 10
0
 20
-0.019
 30
0.005
 70
    192
  0
VERTEX
  8
72OFGO3D01_WP__FRAME__233
 10
0
 20
-0.016925
 30
0
 70
    192
  0
VERTEX
  8
72OFGO3D01_WP__FRAME__233
 10
0
 20
-0.018
 30
0
 70
    192
  0
VERTEX
  8
72OFGO3D01_WP__FRAME__233
 10
0
 20
-0.01659
 30
0.00125
 70
    192
  0
VERTEX
  8
72OFGO3D01_WP__FRAME__233
 10
0
 20
-0.0185
 30
0.000134
 70
    192
  0
VERTEX
  8
72OFGO3D01_WP__FRAME__233
 10
0
 20
-0.018866
 30
0.0005
 70
    192
  0
VERTEX
  8
72OFGO3D01_WP__FRAME__233
 10
0
 20
-0.019
 30
0.001
 70
    192
  0
VERTEX
  8
72OFGO3D01_WP__FRAME__233
 10
0
 20
-0.014
 30
0.008
 70
    192
  0
VERTEX
  8
72OFGO3D01_WP__FRAME__233
 10
0
 20
-0.0105
 30
0.009
 70
    192
  0
VERTEX
  8
72OFGO3D01_WP__FRAME__233
 10
0
 20
-0.019
 30
0.008
 70
    192
  0
VERTEX
  8
72OFGO3D01_WP__FRAME__233
 10
0
 20
-0.019
 30
0.011
 70
    192
  0
VERTEX
  8
72OFGO3D01_WP__FRAME__233
 10
0
 20
-0.0125
 30
0.011
 70
    192
  0
VERTEX
  8
72OFGO3D01_WP__FRAME__233
 10
0
 20
-0.0085
 30
0.015
 70
    192
  0
VERTEX
  8
72OFGO3D01_WP__FRAME__233
 10
0
 20
-0.008379
 30
0.011121
 70
    192
  0
VERTEX
  8
72OFGO3D01_WP__FRAME__233
 10
0
 20
-0.010621
 30
0.017121
 70
    192
  0
VERTEX
  8
72OFGO3D01_WP__FRAME__233
 10
0
 20
-0.001
 30
0.019
 70
    192
  0
VERTEX
  8
72OFGO3D01_WP__FRAME__233
 10
0
 20
-0.018
 30
0.019
 70
    192
  0
VERTEX
  8
72OFGO3D01_WP__FRAME__233
 10
0
 20
-0.019
 30
0.014
 70
    192
  0
VERTEX
  8
72OFGO3D01_WP__FRAME__233
 10
0
 20
-0.019
 30
0.018
 70
    192
  0
VERTEX
  8
72OFGO3D01_WP__FRAME__233
 10
0
 20
-0.013743
 30
0.014
 70
    192
  0
VERTEX
  8
72OFGO3D01_WP__FRAME__233
 10
0
 20
-0.018866
 30
0.0185
 70
    192
  0
VERTEX
  8
72OFGO3D01_WP__FRAME__233
 10
0
 20
-0.0185
 30
0.018866
 70
    192
  0
VERTEX
  8
72OFGO3D01_WP__FRAME__233
 10
0
 20
-0.0005
 30
0.018866
 70
    192
  0
VERTEX
  8
72OFGO3D01_WP__FRAME__233
 10
0
 20
0
 30
0.018
 70
    192
  0
VERTEX
  8
72OFGO3D01_WP__FRAME__233
 10
0
 20
-0.000134
 30
0.0185
 70
    192
  0
VERTEX
  8
72OFGO3D01_WP__FRAME__233
 10
0
 20
0
 30
0.014
 70
    192
  0
VERTEX
  8
72OFGO3D01_WP__FRAME__233
 10
0
 20
-0.005
 30
0.014
 70
    192
  0
VERTEX
  8
72OFGO3D01_WP__FRAME__233
 10
0
 20
-0.005
 30
0.011
 70
    192
  0
VERTEX
  8
72OFGO3D01_WP__FRAME__233
 10
0
 20
0
 30
0.011
 70
    192
  0
VERTEX
  8
72OFGO3D01_WP__FRAME__233
 10
0
 20
0
 30
0.008
 70
    192
  0
VERTEX
  8
72OFGO3D01_WP__FRAME__233
 10
0
 20
-0.005257
 30
0.008
 70
    192
  0
VERTEX
  8
72OFGO3D01_WP__FRAME__233
 10
1
 20
-0.018
 30
0
 70
    192
  0
VERTEX
  8
72OFGO3D01_WP__FRAME__233
 10
1
 20
-0.0185
 30
0.000134
 70
    192
  0
VERTEX
  8
72OFGO3D01_WP__FRAME__233
 10
1
 20
-0.019
 30
0.001
 70
    192
  0
VERTEX
  8
72OFGO3D01_WP__FRAME__233
 10
1
 20
-0.018866
 30
0.0005
 70
    192
  0
VERTEX
  8
72OFGO3D01_WP__FRAME__233
 10
1
 20
-0.019
 30
0.005
 70
    192
  0
VERTEX
  8
72OFGO3D01_WP__FRAME__233
 10
1
 20
-0.01
 30
-0.007
 70
    192
  0
VERTEX
  8
72OFGO3D01_WP__FRAME__233
 10
1
 20
-0.01093
 30
-0.007
 70
    192
  0
VERTEX
  8
72OFGO3D01_WP__FRAME__233
 10
1
 20
-0.01093
 30
-0.0055
 70
    192
  0
VERTEX
  8
72OFGO3D01_WP__FRAME__233
 10
1
 20
-0.01
 30
-0.0055
 70
    192
  0
VERTEX
  8
72OFGO3D01_WP__FRAME__233
 10
1
 20
-0.01093
 30
-0.004
 70
    192
  0
VERTEX
  8
72OFGO3D01_WP__FRAME__233
 10
1
 20
-0.01
 30
-0.004
 70
    192
  0
VERTEX
  8
72OFGO3D01_WP__FRAME__233
 10
1
 20
-0.01093
 30
-0.0025
 70
    192
  0
VERTEX
  8
72OFGO3D01_WP__FRAME__233
 10
1
 20
-0.01
 30
-0.0025
 70
    192
  0
VERTEX
  8
72OFGO3D01_WP__FRAME__233
 10
1
 20
-0.01093
 30
-0.001
 70
    192
  0
VERTEX
  8
72OFGO3D01_WP__FRAME__233
 10
1
 20
-0.01025
 30
-0.001
 70
    192
  0
VERTEX
  8
72OFGO3D01_WP__FRAME__233
 10
1
 20
-0.01025
 30
0
 70
    192
  0
VERTEX
  8
72OFGO3D01_WP__FRAME__233
 10
1
 20
-0.011925
 30
0
 70
    192
  0
VERTEX
  8
72OFGO3D01_WP__FRAME__233
 10
1
 20
-0.01226
 30
0.00125
 70
    192
  0
VERTEX
  8
72OFGO3D01_WP__FRAME__233
 10
1
 20
-0.014425
 30
0.0025
 70
    192
  0
VERTEX
  8
72OFGO3D01_WP__FRAME__233
 10
1
 20
-0.013175
 30
0.002165
 70
    192
  0
VERTEX
  8
72OFGO3D01_WP__FRAME__233
 10
1
 20
-0.015675
 30
0.002165
 70
    192
  0
VERTEX
  8
72OFGO3D01_WP__FRAME__233
 10
1
 20
-0.01659
 30
0.00125
 70
    192
  0
VERTEX
  8
72OFGO3D01_WP__FRAME__233
 10
1
 20
-0.016925
 30
0
 70
    192
  0
VERTEX
  8
72OFGO3D01_WP__FRAME__233
 10
1
 20
-0.014
 30
0.005
 70
    192
  0
VERTEX
  8
72OFGO3D01_WP__FRAME__233
 10
1
 20
-0.014
 30
0.008
 70
    192
  0
VERTEX
  8
72OFGO3D01_WP__FRAME__233
 10
1
 20
-0.019
 30
0.008
 70
    192
  0
VERTEX
  8
72OFGO3D01_WP__FRAME__233
 10
1
 20
-0.019
 30
0.011
 70
    192
  0
VERTEX
  8
72OFGO3D01_WP__FRAME__233
 10
1
 20
-0.0125
 30
0.011
 70
    192
  0
VERTEX
  8
72OFGO3D01_WP__FRAME__233
 10
1
 20
-0.0085
 30
0.015
 70
    192
  0
VERTEX
  8
72OFGO3D01_WP__FRAME__233
 10
1
 20
-0.010621
 30
0.017121
 70
    192
  0
VERTEX
  8
72OFGO3D01_WP__FRAME__233
 10
1
 20
-0.013743
 30
0.014
 70
    192
  0
VERTEX
  8
72OFGO3D01_WP__FRAME__233
 10
1
 20
-0.019
 30
0.014
 70
    192
  0
VERTEX
  8
72OFGO3D01_WP__FRAME__233
 10
1
 20
-0.019
 30
0.018
 70
    192
  0
VERTEX
  8
72OFGO3D01_WP__FRAME__233
 10
1
 20
-0.018866
 30
0.0185
 70
    192
  0
VERTEX
  8
72OFGO3D01_WP__FRAME__233
 10
1
 20
-0.018
 30
0.019
 70
    192
  0
VERTEX
  8
72OFGO3D01_WP__FRAME__233
 10
1
 20
-0.0185
 30
0.018866
 70
    192
  0
VERTEX
  8
72OFGO3D01_WP__FRAME__233
 10
1
 20
-0.001
 30
0.019
 70
    192
  0
VERTEX
  8
72OFGO3D01_WP__FRAME__233
 10
1
 20
-0.0005
 30
0.018866
 70
    192
  0
VERTEX
  8
72OFGO3D01_WP__FRAME__233
 10
1
 20
0
 30
0.018
 70
    192
  0
VERTEX
  8
72OFGO3D01_WP__FRAME__233
 10
1
 20
-0.000134
 30
0.0185
 70
    192
  0
VERTEX
  8
72OFGO3D01_WP__FRAME__233
 10
1
 20
0
 30
0.014
 70
    192
  0
VERTEX
  8
72OFGO3D01_WP__FRAME__233
 10
1
 20
-0.005
 30
0.014
 70
    192
  0
VERTEX
  8
72OFGO3D01_WP__FRAME__233
 10
1
 20
-0.005
 30
0.011
 70
    192
  0
VERTEX
  8
72OFGO3D01_WP__FRAME__233
 10
1
 20
0
 30
0.011
 70
    192
  0
VERTEX
  8
72OFGO3D01_WP__FRAME__233
 10
1
 20
0
 30
0.008
 70
    192
  0
VERTEX
  8
72OFGO3D01_WP__FRAME__233
 10
1
 20
-0.005257
 30
0.008
 70
    192
  0
VERTEX
  8
72OFGO3D01_WP__FRAME__233
 10
1
 20
-0.008379
 30
0.011121
 70
    192
  0
VERTEX
  8
72OFGO3D01_WP__FRAME__233
 10
1
 20
-0.0105
 30
0.009
 70
    192
  0
VERTEX
  8
72OFGO3D01_WP__FRAME__233
 10
1
 20
-0.0065
 30
0.005
 70
    192
  0
VERTEX
  8
72OFGO3D01_WP__FRAME__233
 10
1
 20
-0.002075
 30
0
 70
    192
  0
VERTEX
  8
72OFGO3D01_WP__FRAME__233
 10
1
 20
-0.00241
 30
0.00125
 70
    192
  0
VERTEX
  8
72OFGO3D01_WP__FRAME__233
 10
1
 20
-0.004575
 30
0.0025
 70
    192
  0
VERTEX
  8
72OFGO3D01_WP__FRAME__233
 10
1
 20
-0.003325
 30
0.002165
 70
    192
  0
VERTEX
  8
72OFGO3D01_WP__FRAME__233
 10
1
 20
-0.00674
 30
0.00125
 70
    192
  0
VERTEX
  8
72OFGO3D01_WP__FRAME__233
 10
1
 20
-0.005825
 30
0.002165
 70
    192
  0
VERTEX
  8
72OFGO3D01_WP__FRAME__233
 10
1
 20
-0.007075
 30
0
 70
    192
  0
VERTEX
  8
72OFGO3D01_WP__FRAME__233
 10
1
 20
-0.00875
 30
0
 70
    192
  0
VERTEX
  8
72OFGO3D01_WP__FRAME__233
 10
1
 20
-0.00875
 30
-0.001
 70
    192
  0
VERTEX
  8
72OFGO3D01_WP__FRAME__233
 10
1
 20
-0.00807
 30
-0.001
 70
    192
  0
VERTEX
  8
72OFGO3D01_WP__FRAME__233
 10
1
 20
-0.009
 30
-0.0025
 70
    192
  0
VERTEX
  8
72OFGO3D01_WP__FRAME__233
 10
1
 20
-0.00807
 30
-0.0025
 70
    192
  0
VERTEX
  8
72OFGO3D01_WP__FRAME__233
 10
1
 20
-0.009
 30
-0.004
 70
    192
  0
VERTEX
  8
72OFGO3D01_WP__FRAME__233
 10
1
 20
-0.00807
 30
-0.004
 70
    192
  0
VERTEX
  8
72OFGO3D01_WP__FRAME__233
 10
1
 20
-0.009
 30
-0.0055
 70
    192
  0
VERTEX
  8
72OFGO3D01_WP__FRAME__233
 10
1
 20
-0.00807
 30
-0.0055
 70
    192
  0
VERTEX
  8
72OFGO3D01_WP__FRAME__233
 10
1
 20
-0.009
 30
-0.007
 70
    192
  0
VERTEX
  8
72OFGO3D01_WP__FRAME__233
 10
1
 20
-0.00807
 30
-0.007
 70
    192
  0
VERTEX
  8
72OFGO3D01_WP__FRAME__233
 10
1
 20
-0.009
 30
-0.0085
 70
    192
  0
VERTEX
  8
72OFGO3D01_WP__FRAME__233
 10
1
 20
-0.01
 30
-0.0085
 70
    192
  0
VERTEX
  8
72OFGO3D01_WP__FRAME__233
 10
0.0
 20
0.0
 30
0.0
 70
   128
 62
  9
 71
  1
 72
  2
 73
  3
  0
VERTEX
  8
72OFGO3D01_WP__FRAME__233
 10
0.0
 20
0.0
 30
0.0
 70
   128
 62
  9
 71
 -3
 72
 -2
 73
 -1
  0
VERTEX
  8
72OFGO3D01_WP__FRAME__233
 10
0.0
 20
0.0
 30
0.0
 70
   128
 62
  9
 71
  3
 72
  2
 73
  4
  0
VERTEX
  8
72OFGO3D01_WP__FRAME__233
 10
0.0
 20
0.0
 30
0.0
 70
   128
 62
  9
 71
 -4
 72
 -2
 73
 -3
  0
VERTEX
  8
72OFGO3D01_WP__FRAME__233
 10
0.0
 20
0.0
 30
0.0
 70
   128
 62
  9
 71
  5
 72
  6
 73
  7
  0
VERTEX
  8
72OFGO3D01_WP__FRAME__233
 10
0.0
 20
0.0
 30
0.0
 70
   128
 62
  9
 71
 -7
 72
 -6
 73
 -5
  0
VERTEX
  8
72OFGO3D01_WP__FRAME__233
 10
0.0
 20
0.0
 30
0.0
 70
   128
 62
  9
 71
  5
 72
  8
 73
  6
  0
VERTEX
  8
72OFGO3D01_WP__FRAME__233
 10
0.0
 20
0.0
 30
0.0
 70
   128
 62
  9
 71
 -6
 72
 -8
 73
 -5
  0
VERTEX
  8
72OFGO3D01_WP__FRAME__233
 10
0.0
 20
0.0
 30
0.0
 70
   128
 62
  9
 71
  6
 72
  4
 73
  7
  0
VERTEX
  8
72OFGO3D01_WP__FRAME__233
 10
0.0
 20
0.0
 30
0.0
 70
   128
 62
  9
 71
 -7
 72
 -4
 73
 -6
  0
VERTEX
  8
72OFGO3D01_WP__FRAME__233
 10
0.0
 20
0.0
 30
0.0
 70
   128
 62
  9
 71
  7
 72
  4
 73
  2
  0
VERTEX
  8
72OFGO3D01_WP__FRAME__233
 10
0.0
 20
0.0
 30
0.0
 70
   128
 62
  9
 71
 -2
 72
 -4
 73
 -7
  0
VERTEX
  8
72OFGO3D01_WP__FRAME__233
 10
0.0
 20
0.0
 30
0.0
 70
   128
 62
  9
 71
  3
 72
  9
 73
  1
  0
VERTEX
  8
72OFGO3D01_WP__FRAME__233
 10
0.0
 20
0.0
 30
0.0
 70
   128
 62
  9
 71
 -1
 72
 -9
 73
 -3
  0
VERTEX
  8
72OFGO3D01_WP__FRAME__233
 10
0.0
 20
0.0
 30
0.0
 70
   128
 62
  9
 71
  9
 72
  10
 73
  1
  0
VERTEX
  8
72OFGO3D01_WP__FRAME__233
 10
0.0
 20
0.0
 30
0.0
 70
   128
 62
  9
 71
 -1
 72
 -10
 73
 -9
  0
VERTEX
  8
72OFGO3D01_WP__FRAME__233
 10
0.0
 20
0.0
 30
0.0
 70
   128
 62
  9
 71
  4
 72
  6
 73
  3
  0
VERTEX
  8
72OFGO3D01_WP__FRAME__233
 10
0.0
 20
0.0
 30
0.0
 70
   128
 62
  9
 71
 -3
 72
 -6
 73
 -4
  0
VERTEX
  8
72OFGO3D01_WP__FRAME__233
 10
0.0
 20
0.0
 30
0.0
 70
   128
 62
  9
 71
  6
 72
  8
 73
  3
  0
VERTEX
  8
72OFGO3D01_WP__FRAME__233
 10
0.0
 20
0.0
 30
0.0
 70
   128
 62
  9
 71
 -3
 72
 -8
 73
 -6
  0
VERTEX
  8
72OFGO3D01_WP__FRAME__233
 10
0.0
 20
0.0
 30
0.0
 70
   128
 62
  9
 71
  11
 72
  12
 73
  8
  0
VERTEX
  8
72OFGO3D01_WP__FRAME__233
 10
0.0
 20
0.0
 30
0.0
 70
   128
 62
  9
 71
 -8
 72
 -12
 73
 -11
  0
VERTEX
  8
72OFGO3D01_WP__FRAME__233
 10
0.0
 20
0.0
 30
0.0
 70
   128
 62
  9
 71
  13
 72
  9
 73
  12
  0
VERTEX
  8
72OFGO3D01_WP__FRAME__233
 10
0.0
 20
0.0
 30
0.0
 70
   128
 62
  9
 71
 -12
 72
 -9
 73
 -13
  0
VERTEX
  8
72OFGO3D01_WP__FRAME__233
 10
0.0
 20
0.0
 30
0.0
 70
   128
 62
  9
 71
  13
 72
  14
 73
  9
  0
VERTEX
  8
72OFGO3D01_WP__FRAME__233
 10
0.0
 20
0.0
 30
0.0
 70
   128
 62
  9
 71
 -9
 72
 -14
 73
 -13
  0
VERTEX
  8
72OFGO3D01_WP__FRAME__233
 10
0.0
 20
0.0
 30
0.0
 70
   128
 62
  9
 71
  9
 72
  14
 73
  15
  0
VERTEX
  8
72OFGO3D01_WP__FRAME__233
 10
0.0
 20
0.0
 30
0.0
 70
   128
 62
  9
 71
 -15
 72
 -14
 73
 -9
  0
VERTEX
  8
72OFGO3D01_WP__FRAME__233
 10
0.0
 20
0.0
 30
0.0
 70
   128
 62
  9
 71
  14
 72
  16
 73
  15
  0
VERTEX
  8
72OFGO3D01_WP__FRAME__233
 10
0.0
 20
0.0
 30
0.0
 70
   128
 62
  9
 71
 -15
 72
 -16
 73
 -14
  0
VERTEX
  8
72OFGO3D01_WP__FRAME__233
 10
0.0
 20
0.0
 30
0.0
 70
   128
 62
  9
 71
  17
 72
  18
 73
  19
  0
VERTEX
  8
72OFGO3D01_WP__FRAME__233
 10
0.0
 20
0.0
 30
0.0
 70
   128
 62
  9
 71
 -19
 72
 -18
 73
 -17
  0
VERTEX
  8
72OFGO3D01_WP__FRAME__233
 10
0.0
 20
0.0
 30
0.0
 70
   128
 62
  9
 71
  20
 72
  21
 73
  18
  0
VERTEX
  8
72OFGO3D01_WP__FRAME__233
 10
0.0
 20
0.0
 30
0.0
 70
   128
 62
  9
 71
 -18
 72
 -21
 73
 -20
  0
VERTEX
  8
72OFGO3D01_WP__FRAME__233
 10
0.0
 20
0.0
 30
0.0
 70
   128
 62
  9
 71
  22
 72
  23
 73
  20
  0
VERTEX
  8
72OFGO3D01_WP__FRAME__233
 10
0.0
 20
0.0
 30
0.0
 70
   128
 62
  9
 71
 -20
 72
 -23
 73
 -22
  0
VERTEX
  8
72OFGO3D01_WP__FRAME__233
 10
0.0
 20
0.0
 30
0.0
 70
   128
 62
  9
 71
  24
 72
  25
 73
  23
  0
VERTEX
  8
72OFGO3D01_WP__FRAME__233
 10
0.0
 20
0.0
 30
0.0
 70
   128
 62
  9
 71
 -23
 72
 -25
 73
 -24
  0
VERTEX
  8
72OFGO3D01_WP__FRAME__233
 10
0.0
 20
0.0
 30
0.0
 70
   128
 62
  9
 71
  26
 72
  27
 73
  25
  0
VERTEX
  8
72OFGO3D01_WP__FRAME__233
 10
0.0
 20
0.0
 30
0.0
 70
   128
 62
  9
 71
 -25
 72
 -27
 73
 -26
  0
VERTEX
  8
72OFGO3D01_WP__FRAME__233
 10
0.0
 20
0.0
 30
0.0
 70
   128
 62
  9
 71
  28
 72
  29
 73
  27
  0
VERTEX
  8
72OFGO3D01_WP__FRAME__233
 10
0.0
 20
0.0
 30
0.0
 70
   128
 62
  9
 71
 -27
 72
 -29
 73
 -28
  0
VERTEX
  8
72OFGO3D01_WP__FRAME__233
 10
0.0
 20
0.0
 30
0.0
 70
   128
 62
  9
 71
  30
 72
  31
 73
  29
  0
VERTEX
  8
72OFGO3D01_WP__FRAME__233
 10
0.0
 20
0.0
 30
0.0
 70
   128
 62
  9
 71
 -29
 72
 -31
 73
 -30
  0
VERTEX
  8
72OFGO3D01_WP__FRAME__233
 10
0.0
 20
0.0
 30
0.0
 70
   128
 62
  9
 71
  29
 72
  31
 73
  32
  0
VERTEX
  8
72OFGO3D01_WP__FRAME__233
 10
0.0
 20
0.0
 30
0.0
 70
   128
 62
  9
 71
 -32
 72
 -31
 73
 -29
  0
VERTEX
  8
72OFGO3D01_WP__FRAME__233
 10
0.0
 20
0.0
 30
0.0
 70
   128
 62
  9
 71
  29
 72
  32
 73
  33
  0
VERTEX
  8
72OFGO3D01_WP__FRAME__233
 10
0.0
 20
0.0
 30
0.0
 70
   128
 62
  9
 71
 -33
 72
 -32
 73
 -29
  0
VERTEX
  8
72OFGO3D01_WP__FRAME__233
 10
0.0
 20
0.0
 30
0.0
 70
   128
 62
  9
 71
  29
 72
  33
 73
  27
  0
VERTEX
  8
72OFGO3D01_WP__FRAME__233
 10
0.0
 20
0.0
 30
0.0
 70
   128
 62
  9
 71
 -27
 72
 -33
 73
 -29
  0
VERTEX
  8
72OFGO3D01_WP__FRAME__233
 10
0.0
 20
0.0
 30
0.0
 70
   128
 62
  9
 71
  34
 72
  32
 73
  35
  0
VERTEX
  8
72OFGO3D01_WP__FRAME__233
 10
0.0
 20
0.0
 30
0.0
 70
   128
 62
  9
 71
 -35
 72
 -32
 73
 -34
  0
VERTEX
  8
72OFGO3D01_WP__FRAME__233
 10
0.0
 20
0.0
 30
0.0
 70
   128
 62
  9
 71
  32
 72
  36
 73
  33
  0
VERTEX
  8
72OFGO3D01_WP__FRAME__233
 10
0.0
 20
0.0
 30
0.0
 70
   128
 62
  9
 71
 -33
 72
 -36
 73
 -32
  0
VERTEX
  8
72OFGO3D01_WP__FRAME__233
 10
0.0
 20
0.0
 30
0.0
 70
   128
 62
  9
 71
  37
 72
  38
 73
  33
  0
VERTEX
  8
72OFGO3D01_WP__FRAME__233
 10
0.0
 20
0.0
 30
0.0
 70
   128
 62
  9
 71
 -33
 72
 -38
 73
 -37
  0
VERTEX
  8
72OFGO3D01_WP__FRAME__233
 10
0.0
 20
0.0
 30
0.0
 70
   128
 62
  9
 71
  39
 72
  40
 73
  38
  0
VERTEX
  8
72OFGO3D01_WP__FRAME__233
 10
0.0
 20
0.0
 30
0.0
 70
   128
 62
  9
 71
 -38
 72
 -40
 73
 -39
  0
VERTEX
  8
72OFGO3D01_WP__FRAME__233
 10
0.0
 20
0.0
 30
0.0
 70
   128
 62
  9
 71
  41
 72
  42
 73
  40
  0
VERTEX
  8
72OFGO3D01_WP__FRAME__233
 10
0.0
 20
0.0
 30
0.0
 70
   128
 62
  9
 71
 -40
 72
 -42
 73
 -41
  0
VERTEX
  8
72OFGO3D01_WP__FRAME__233
 10
0.0
 20
0.0
 30
0.0
 70
   128
 62
  9
 71
  40
 72
  42
 73
  20
  0
VERTEX
  8
72OFGO3D01_WP__FRAME__233
 10
0.0
 20
0.0
 30
0.0
 70
   128
 62
  9
 71
 -20
 72
 -42
 73
 -40
  0
VERTEX
  8
72OFGO3D01_WP__FRAME__233
 10
0.0
 20
0.0
 30
0.0
 70
   128
 62
  9
 71
  40
 72
  20
 73
  23
  0
VERTEX
  8
72OFGO3D01_WP__FRAME__233
 10
0.0
 20
0.0
 30
0.0
 70
   128
 62
  9
 71
 -23
 72
 -20
 73
 -40
  0
VERTEX
  8
72OFGO3D01_WP__FRAME__233
 10
0.0
 20
0.0
 30
0.0
 70
   128
 62
  9
 71
  40
 72
  23
 73
  25
  0
VERTEX
  8
72OFGO3D01_WP__FRAME__233
 10
0.0
 20
0.0
 30
0.0
 70
   128
 62
  9
 71
 -25
 72
 -23
 73
 -40
  0
VERTEX
  8
72OFGO3D01_WP__FRAME__233
 10
0.0
 20
0.0
 30
0.0
 70
   128
 62
  9
 71
  40
 72
  25
 73
  38
  0
VERTEX
  8
72OFGO3D01_WP__FRAME__233
 10
0.0
 20
0.0
 30
0.0
 70
   128
 62
  9
 71
 -38
 72
 -25
 73
 -40
  0
VERTEX
  8
72OFGO3D01_WP__FRAME__233
 10
0.0
 20
0.0
 30
0.0
 70
   128
 62
  9
 71
  43
 72
  44
 73
  21
  0
VERTEX
  8
72OFGO3D01_WP__FRAME__233
 10
0.0
 20
0.0
 30
0.0
 70
   128
 62
  9
 71
 -21
 72
 -44
 73
 -43
  0
VERTEX
  8
72OFGO3D01_WP__FRAME__233
 10
0.0
 20
0.0
 30
0.0
 70
   128
 62
  9
 71
  21
 72
  44
 73
  15
  0
VERTEX
  8
72OFGO3D01_WP__FRAME__233
 10
0.0
 20
0.0
 30
0.0
 70
   128
 62
  9
 71
 -15
 72
 -44
 73
 -21
  0
VERTEX
  8
72OFGO3D01_WP__FRAME__233
 10
0.0
 20
0.0
 30
0.0
 70
   128
 62
  9
 71
  21
 72
  15
 73
  18
  0
VERTEX
  8
72OFGO3D01_WP__FRAME__233
 10
0.0
 20
0.0
 30
0.0
 70
   128
 62
  9
 71
 -18
 72
 -15
 73
 -21
  0
VERTEX
  8
72OFGO3D01_WP__FRAME__233
 10
0.0
 20
0.0
 30
0.0
 70
   128
 62
  9
 71
  45
 72
  46
 73
  47
  0
VERTEX
  8
72OFGO3D01_WP__FRAME__233
 10
0.0
 20
0.0
 30
0.0
 70
   128
 62
  9
 71
 -47
 72
 -46
 73
 -45
  0
VERTEX
  8
72OFGO3D01_WP__FRAME__233
 10
0.0
 20
0.0
 30
0.0
 70
   128
 62
  9
 71
  45
 72
  48
 73
  46
  0
VERTEX
  8
72OFGO3D01_WP__FRAME__233
 10
0.0
 20
0.0
 30
0.0
 70
   128
 62
  9
 71
 -46
 72
 -48
 73
 -45
  0
VERTEX
  8
72OFGO3D01_WP__FRAME__233
 10
0.0
 20
0.0
 30
0.0
 70
   128
 62
  9
 71
  46
 72
  48
 73
  49
  0
VERTEX
  8
72OFGO3D01_WP__FRAME__233
 10
0.0
 20
0.0
 30
0.0
 70
   128
 62
  9
 71
 -49
 72
 -48
 73
 -46
  0
VERTEX
  8
72OFGO3D01_WP__FRAME__233
 10
0.0
 20
0.0
 30
0.0
 70
   128
 62
  9
 71
  50
 72
  51
 73
  52
  0
VERTEX
  8
72OFGO3D01_WP__FRAME__233
 10
0.0
 20
0.0
 30
0.0
 70
   128
 62
  9
 71
 -52
 72
 -51
 73
 -50
  0
VERTEX
  8
72OFGO3D01_WP__FRAME__233
 10
0.0
 20
0.0
 30
0.0
 70
   128
 62
  9
 71
  51
 72
  53
 73
  52
  0
VERTEX
  8
72OFGO3D01_WP__FRAME__233
 10
0.0
 20
0.0
 30
0.0
 70
   128
 62
  9
 71
 -52
 72
 -53
 73
 -51
  0
VERTEX
  8
72OFGO3D01_WP__FRAME__233
 10
0.0
 20
0.0
 30
0.0
 70
   128
 62
  9
 71
  53
 72
  54
 73
  52
  0
VERTEX
  8
72OFGO3D01_WP__FRAME__233
 10
0.0
 20
0.0
 30
0.0
 70
   128
 62
  9
 71
 -52
 72
 -54
 73
 -53
  0
VERTEX
  8
72OFGO3D01_WP__FRAME__233
 10
0.0
 20
0.0
 30
0.0
 70
   128
 62
  9
 71
  54
 72
  55
 73
  52
  0
VERTEX
  8
72OFGO3D01_WP__FRAME__233
 10
0.0
 20
0.0
 30
0.0
 70
   128
 62
  9
 71
 -52
 72
 -55
 73
 -54
  0
VERTEX
  8
72OFGO3D01_WP__FRAME__233
 10
0.0
 20
0.0
 30
0.0
 70
   128
 62
  9
 71
  55
 72
  49
 73
  52
  0
VERTEX
  8
72OFGO3D01_WP__FRAME__233
 10
0.0
 20
0.0
 30
0.0
 70
   128
 62
  9
 71
 -52
 72
 -49
 73
 -55
  0
VERTEX
  8
72OFGO3D01_WP__FRAME__233
 10
0.0
 20
0.0
 30
0.0
 70
   128
 62
  9
 71
  52
 72
  49
 73
  48
  0
VERTEX
  8
72OFGO3D01_WP__FRAME__233
 10
0.0
 20
0.0
 30
0.0
 70
   128
 62
  9
 71
 -48
 72
 -49
 73
 -52
  0
VERTEX
  8
72OFGO3D01_WP__FRAME__233
 10
0.0
 20
0.0
 30
0.0
 70
   128
 62
  9
 71
  56
 72
  57
 73
  46
  0
VERTEX
  8
72OFGO3D01_WP__FRAME__233
 10
0.0
 20
0.0
 30
0.0
 70
   128
 62
  9
 71
 -46
 72
 -57
 73
 -56
  0
VERTEX
  8
72OFGO3D01_WP__FRAME__233
 10
0.0
 20
0.0
 30
0.0
 70
   128
 62
  9
 71
  58
 72
  59
 73
  56
  0
VERTEX
  8
72OFGO3D01_WP__FRAME__233
 10
0.0
 20
0.0
 30
0.0
 70
   128
 62
  9
 71
 -56
 72
 -59
 73
 -58
  0
VERTEX
  8
72OFGO3D01_WP__FRAME__233
 10
0.0
 20
0.0
 30
0.0
 70
   128
 62
  9
 71
  59
 72
  60
 73
  56
  0
VERTEX
  8
72OFGO3D01_WP__FRAME__233
 10
0.0
 20
0.0
 30
0.0
 70
   128
 62
  9
 71
 -56
 72
 -60
 73
 -59
  0
VERTEX
  8
72OFGO3D01_WP__FRAME__233
 10
0.0
 20
0.0
 30
0.0
 70
   128
 62
  9
 71
  61
 72
  62
 73
  60
  0
VERTEX
  8
72OFGO3D01_WP__FRAME__233
 10
0.0
 20
0.0
 30
0.0
 70
   128
 62
  9
 71
 -60
 72
 -62
 73
 -61
  0
VERTEX
  8
72OFGO3D01_WP__FRAME__233
 10
0.0
 20
0.0
 30
0.0
 70
   128
 62
  9
 71
  63
 72
  64
 73
  61
  0
VERTEX
  8
72OFGO3D01_WP__FRAME__233
 10
0.0
 20
0.0
 30
0.0
 70
   128
 62
  9
 71
 -61
 72
 -64
 73
 -63
  0
VERTEX
  8
72OFGO3D01_WP__FRAME__233
 10
0.0
 20
0.0
 30
0.0
 70
   128
 62
  9
 71
  64
 72
  63
 73
  65
  0
VERTEX
  8
72OFGO3D01_WP__FRAME__233
 10
0.0
 20
0.0
 30
0.0
 70
   128
 62
  9
 71
 -65
 72
 -63
 73
 -64
  0
VERTEX
  8
72OFGO3D01_WP__FRAME__233
 10
0.0
 20
0.0
 30
0.0
 70
   128
 62
  9
 71
  66
 72
  67
 73
  68
  0
VERTEX
  8
72OFGO3D01_WP__FRAME__233
 10
0.0
 20
0.0
 30
0.0
 70
   128
 62
  9
 71
 -68
 72
 -67
 73
 -66
  0
VERTEX
  8
72OFGO3D01_WP__FRAME__233
 10
0.0
 20
0.0
 30
0.0
 70
   128
 62
  9
 71
  69
 72
  70
 73
  67
  0
VERTEX
  8
72OFGO3D01_WP__FRAME__233
 10
0.0
 20
0.0
 30
0.0
 70
   128
 62
  9
 71
 -67
 72
 -70
 73
 -69
  0
VERTEX
  8
72OFGO3D01_WP__FRAME__233
 10
0.0
 20
0.0
 30
0.0
 70
   128
 62
  9
 71
  70
 72
  65
 73
  67
  0
VERTEX
  8
72OFGO3D01_WP__FRAME__233
 10
0.0
 20
0.0
 30
0.0
 70
   128
 62
  9
 71
 -67
 72
 -65
 73
 -70
  0
VERTEX
  8
72OFGO3D01_WP__FRAME__233
 10
0.0
 20
0.0
 30
0.0
 70
   128
 62
  9
 71
  71
 72
  72
 73
  64
  0
VERTEX
  8
72OFGO3D01_WP__FRAME__233
 10
0.0
 20
0.0
 30
0.0
 70
   128
 62
  9
 71
 -64
 72
 -72
 73
 -71
  0
VERTEX
  8
72OFGO3D01_WP__FRAME__233
 10
0.0
 20
0.0
 30
0.0
 70
   128
 62
  9
 71
  71
 72
  73
 73
  72
  0
VERTEX
  8
72OFGO3D01_WP__FRAME__233
 10
0.0
 20
0.0
 30
0.0
 70
   128
 62
  9
 71
 -72
 72
 -73
 73
 -71
  0
VERTEX
  8
72OFGO3D01_WP__FRAME__233
 10
0.0
 20
0.0
 30
0.0
 70
   128
 62
  9
 71
  74
 72
  75
 73
  72
  0
VERTEX
  8
72OFGO3D01_WP__FRAME__233
 10
0.0
 20
0.0
 30
0.0
 70
   128
 62
  9
 71
 -72
 72
 -75
 73
 -74
  0
VERTEX
  8
72OFGO3D01_WP__FRAME__233
 10
0.0
 20
0.0
 30
0.0
 70
   128
 62
  9
 71
  76
 72
  62
 73
  75
  0
VERTEX
  8
72OFGO3D01_WP__FRAME__233
 10
0.0
 20
0.0
 30
0.0
 70
   128
 62
  9
 71
 -75
 72
 -62
 73
 -76
  0
VERTEX
  8
72OFGO3D01_WP__FRAME__233
 10
0.0
 20
0.0
 30
0.0
 70
   128
 62
  9
 71
  77
 72
  78
 73
  76
  0
VERTEX
  8
72OFGO3D01_WP__FRAME__233
 10
0.0
 20
0.0
 30
0.0
 70
   128
 62
  9
 71
 -76
 72
 -78
 73
 -77
  0
VERTEX
  8
72OFGO3D01_WP__FRAME__233
 10
0.0
 20
0.0
 30
0.0
 70
   128
 62
  9
 71
  78
 72
  79
 73
  76
  0
VERTEX
  8
72OFGO3D01_WP__FRAME__233
 10
0.0
 20
0.0
 30
0.0
 70
   128
 62
  9
 71
 -76
 72
 -79
 73
 -78
  0
VERTEX
  8
72OFGO3D01_WP__FRAME__233
 10
0.0
 20
0.0
 30
0.0
 70
   128
 62
  9
 71
  79
 72
  62
 73
  76
  0
VERTEX
  8
72OFGO3D01_WP__FRAME__233
 10
0.0
 20
0.0
 30
0.0
 70
   128
 62
  9
 71
 -76
 72
 -62
 73
 -79
  0
VERTEX
  8
72OFGO3D01_WP__FRAME__233
 10
0.0
 20
0.0
 30
0.0
 70
   128
 62
  9
 71
  62
 72
  57
 73
  60
  0
VERTEX
  8
72OFGO3D01_WP__FRAME__233
 10
0.0
 20
0.0
 30
0.0
 70
   128
 62
  9
 71
 -60
 72
 -57
 73
 -62
  0
VERTEX
  8
72OFGO3D01_WP__FRAME__233
 10
0.0
 20
0.0
 30
0.0
 70
   128
 62
  9
 71
  57
 72
  15
 73
  46
  0
VERTEX
  8
72OFGO3D01_WP__FRAME__233
 10
0.0
 20
0.0
 30
0.0
 70
   128
 62
  9
 71
 -46
 72
 -15
 73
 -57
  0
VERTEX
  8
72OFGO3D01_WP__FRAME__233
 10
0.0
 20
0.0
 30
0.0
 70
   128
 62
  9
 71
  9
 72
  3
 73
  12
  0
VERTEX
  8
72OFGO3D01_WP__FRAME__233
 10
0.0
 20
0.0
 30
0.0
 70
   128
 62
  9
 71
 -12
 72
 -3
 73
 -9
  0
VERTEX
  8
72OFGO3D01_WP__FRAME__233
 10
0.0
 20
0.0
 30
0.0
 70
   128
 62
  9
 71
  35
 72
  32
 73
  31
  0
VERTEX
  8
72OFGO3D01_WP__FRAME__233
 10
0.0
 20
0.0
 30
0.0
 70
   128
 62
  9
 71
 -31
 72
 -32
 73
 -35
  0
VERTEX
  8
72OFGO3D01_WP__FRAME__233
 10
0.0
 20
0.0
 30
0.0
 70
   128
 62
  9
 71
  33
 72
  38
 73
  27
  0
VERTEX
  8
72OFGO3D01_WP__FRAME__233
 10
0.0
 20
0.0
 30
0.0
 70
   128
 62
  9
 71
 -27
 72
 -38
 73
 -33
  0
VERTEX
  8
72OFGO3D01_WP__FRAME__233
 10
0.0
 20
0.0
 30
0.0
 70
   128
 62
  9
 71
  25
 72
  27
 73
  38
  0
VERTEX
  8
72OFGO3D01_WP__FRAME__233
 10
0.0
 20
0.0
 30
0.0
 70
   128
 62
  9
 71
 -38
 72
 -27
 73
 -25
  0
VERTEX
  8
72OFGO3D01_WP__FRAME__233
 10
0.0
 20
0.0
 30
0.0
 70
   128
 62
  9
 71
  21
 72
  20
 73
  42
  0
VERTEX
  8
72OFGO3D01_WP__FRAME__233
 10
0.0
 20
0.0
 30
0.0
 70
   128
 62
  9
 71
 -42
 72
 -20
 73
 -21
  0
VERTEX
  8
72OFGO3D01_WP__FRAME__233
 10
0.0
 20
0.0
 30
0.0
 70
   128
 62
  9
 71
  62
 72
  61
 73
  75
  0
VERTEX
  8
72OFGO3D01_WP__FRAME__233
 10
0.0
 20
0.0
 30
0.0
 70
   128
 62
  9
 71
 -75
 72
 -61
 73
 -62
  0
VERTEX
  8
72OFGO3D01_WP__FRAME__233
 10
0.0
 20
0.0
 30
0.0
 70
   128
 62
  9
 71
  44
 72
  47
 73
  15
  0
VERTEX
  8
72OFGO3D01_WP__FRAME__233
 10
0.0
 20
0.0
 30
0.0
 70
   128
 62
  9
 71
 -15
 72
 -47
 73
 -44
  0
VERTEX
  8
72OFGO3D01_WP__FRAME__233
 10
0.0
 20
0.0
 30
0.0
 70
   128
 62
  9
 71
  19
 72
  18
 73
  15
  0
VERTEX
  8
72OFGO3D01_WP__FRAME__233
 10
0.0
 20
0.0
 30
0.0
 70
   128
 62
  9
 71
 -15
 72
 -18
 73
 -19
  0
VERTEX
  8
72OFGO3D01_WP__FRAME__233
 10
0.0
 20
0.0
 30
0.0
 70
   128
 62
  9
 71
  19
 72
  15
 73
  16
  0
VERTEX
  8
72OFGO3D01_WP__FRAME__233
 10
0.0
 20
0.0
 30
0.0
 70
   128
 62
  9
 71
 -16
 72
 -15
 73
 -19
  0
VERTEX
  8
72OFGO3D01_WP__FRAME__233
 10
0.0
 20
0.0
 30
0.0
 70
   128
 62
  9
 71
  8
 72
  12
 73
  3
  0
VERTEX
  8
72OFGO3D01_WP__FRAME__233
 10
0.0
 20
0.0
 30
0.0
 70
   128
 62
  9
 71
 -3
 72
 -12
 73
 -8
  0
VERTEX
  8
72OFGO3D01_WP__FRAME__233
 10
0.0
 20
0.0
 30
0.0
 70
   128
 62
  9
 71
  56
 72
  60
 73
  57
  0
VERTEX
  8
72OFGO3D01_WP__FRAME__233
 10
0.0
 20
0.0
 30
0.0
 70
   128
 62
  9
 71
 -57
 72
 -60
 73
 -56
  0
VERTEX
  8
72OFGO3D01_WP__FRAME__233
 10
0.0
 20
0.0
 30
0.0
 70
   128
 62
  9
 71
  46
 72
  15
 73
  47
  0
VERTEX
  8
72OFGO3D01_WP__FRAME__233
 10
0.0
 20
0.0
 30
0.0
 70
   128
 62
  9
 71
 -47
 72
 -15
 73
 -46
  0
VERTEX
  8
72OFGO3D01_WP__FRAME__233
 10
0.0
 20
0.0
 30
0.0
 70
   128
 62
  9
 71
  63
 72
  68
 73
  65
  0
VERTEX
  8
72OFGO3D01_WP__FRAME__233
 10
0.0
 20
0.0
 30
0.0
 70
   128
 62
  9
 71
 -65
 72
 -68
 73
 -63
  0
VERTEX
  8
72OFGO3D01_WP__FRAME__233
 10
0.0
 20
0.0
 30
0.0
 70
   128
 62
  9
 71
  68
 72
  67
 73
  65
  0
VERTEX
  8
72OFGO3D01_WP__FRAME__233
 10
0.0
 20
0.0
 30
0.0
 70
   128
 62
  9
 71
 -65
 72
 -67
 73
 -68
  0
VERTEX
  8
72OFGO3D01_WP__FRAME__233
 10
0.0
 20
0.0
 30
0.0
 70
   128
 62
  9
 71
  72
 72
  75
 73
  64
  0
VERTEX
  8
72OFGO3D01_WP__FRAME__233
 10
0.0
 20
0.0
 30
0.0
 70
   128
 62
  9
 71
 -64
 72
 -75
 73
 -72
  0
VERTEX
  8
72OFGO3D01_WP__FRAME__233
 10
0.0
 20
0.0
 30
0.0
 70
   128
 62
  9
 71
  61
 72
  64
 73
  75
  0
VERTEX
  8
72OFGO3D01_WP__FRAME__233
 10
0.0
 20
0.0
 30
0.0
 70
   128
 62
  9
 71
 -75
 72
 -64
 73
 -61
  0
VERTEX
  8
72OFGO3D01_WP__FRAME__233
 10
0.0
 20
0.0
 30
0.0
 70
   128
 62
  9
 71
  80
 72
  81
 73
  51
  0
VERTEX
  8
72OFGO3D01_WP__FRAME__233
 10
0.0
 20
0.0
 30
0.0
 70
   128
 62
  9
 71
 -51
 72
 -81
 73
 -80
  0
VERTEX
  8
72OFGO3D01_WP__FRAME__233
 10
0.0
 20
0.0
 30
0.0
 70
   128
 62
  9
 71
  51
 72
  81
 73
  53
  0
VERTEX
  8
72OFGO3D01_WP__FRAME__233
 10
0.0
 20
0.0
 30
0.0
 70
   128
 62
  9
 71
 -53
 72
 -81
 73
 -51
  0
VERTEX
  8
72OFGO3D01_WP__FRAME__233
 10
0.0
 20
0.0
 30
0.0
 70
   128
 62
  9
 71
  82
 72
  54
 73
  83
  0
VERTEX
  8
72OFGO3D01_WP__FRAME__233
 10
0.0
 20
0.0
 30
0.0
 70
   128
 62
  9
 71
 -83
 72
 -54
 73
 -82
  0
VERTEX
  8
72OFGO3D01_WP__FRAME__233
 10
0.0
 20
0.0
 30
0.0
 70
   128
 62
  9
 71
  82
 72
  55
 73
  54
  0
VERTEX
  8
72OFGO3D01_WP__FRAME__233
 10
0.0
 20
0.0
 30
0.0
 70
   128
 62
  9
 71
 -54
 72
 -55
 73
 -82
  0
VERTEX
  8
72OFGO3D01_WP__FRAME__233
 10
0.0
 20
0.0
 30
0.0
 70
   128
 62
  9
 71
  54
 72
  53
 73
  83
  0
VERTEX
  8
72OFGO3D01_WP__FRAME__233
 10
0.0
 20
0.0
 30
0.0
 70
   128
 62
  9
 71
 -83
 72
 -53
 73
 -54
  0
VERTEX
  8
72OFGO3D01_WP__FRAME__233
 10
0.0
 20
0.0
 30
0.0
 70
   128
 62
  9
 71
  83
 72
  53
 73
  81
  0
VERTEX
  8
72OFGO3D01_WP__FRAME__233
 10
0.0
 20
0.0
 30
0.0
 70
   128
 62
  9
 71
 -81
 72
 -53
 73
 -83
  0
VERTEX
  8
72OFGO3D01_WP__FRAME__233
 10
0.0
 20
0.0
 30
0.0
 70
   128
 62
  9
 71
  82
 72
  84
 73
  55
  0
VERTEX
  8
72OFGO3D01_WP__FRAME__233
 10
0.0
 20
0.0
 30
0.0
 70
   128
 62
  9
 71
 -55
 72
 -84
 73
 -82
  0
VERTEX
  8
72OFGO3D01_WP__FRAME__233
 10
0.0
 20
0.0
 30
0.0
 70
   128
 62
  9
 71
  84
 72
  49
 73
  55
  0
VERTEX
  8
72OFGO3D01_WP__FRAME__233
 10
0.0
 20
0.0
 30
0.0
 70
   128
 62
  9
 71
 -55
 72
 -49
 73
 -84
  0
VERTEX
  8
72OFGO3D01_WP__FRAME__233
 10
0.0
 20
0.0
 30
0.0
 70
   128
 62
  9
 71
  85
 72
  32
 73
  86
  0
VERTEX
  8
72OFGO3D01_WP__FRAME__233
 10
0.0
 20
0.0
 30
0.0
 70
   128
 62
  9
 71
 -86
 72
 -32
 73
 -85
  0
VERTEX
  8
72OFGO3D01_WP__FRAME__233
 10
0.0
 20
0.0
 30
0.0
 70
   128
 62
  9
 71
  32
 72
  34
 73
  86
  0
VERTEX
  8
72OFGO3D01_WP__FRAME__233
 10
0.0
 20
0.0
 30
0.0
 70
   128
 62
  9
 71
 -86
 72
 -34
 73
 -32
  0
VERTEX
  8
72OFGO3D01_WP__FRAME__233
 10
0.0
 20
0.0
 30
0.0
 70
   128
 62
  9
 71
  87
 72
  36
 73
  85
  0
VERTEX
  8
72OFGO3D01_WP__FRAME__233
 10
0.0
 20
0.0
 30
0.0
 70
   128
 62
  9
 71
 -85
 72
 -36
 73
 -87
  0
VERTEX
  8
72OFGO3D01_WP__FRAME__233
 10
0.0
 20
0.0
 30
0.0
 70
   128
 62
  9
 71
  36
 72
  32
 73
  85
  0
VERTEX
  8
72OFGO3D01_WP__FRAME__233
 10
0.0
 20
0.0
 30
0.0
 70
   128
 62
  9
 71
 -85
 72
 -32
 73
 -36
  0
VERTEX
  8
72OFGO3D01_WP__FRAME__233
 10
0.0
 20
0.0
 30
0.0
 70
   128
 62
  9
 71
  88
 72
  33
 73
  87
  0
VERTEX
  8
72OFGO3D01_WP__FRAME__233
 10
0.0
 20
0.0
 30
0.0
 70
   128
 62
  9
 71
 -87
 72
 -33
 73
 -88
  0
VERTEX
  8
72OFGO3D01_WP__FRAME__233
 10
0.0
 20
0.0
 30
0.0
 70
   128
 62
  9
 71
  33
 72
  36
 73
  87
  0
VERTEX
  8
72OFGO3D01_WP__FRAME__233
 10
0.0
 20
0.0
 30
0.0
 70
   128
 62
  9
 71
 -87
 72
 -36
 73
 -33
  0
VERTEX
  8
72OFGO3D01_WP__FRAME__233
 10
0.0
 20
0.0
 30
0.0
 70
   128
 62
  9
 71
  89
 72
  37
 73
  88
  0
VERTEX
  8
72OFGO3D01_WP__FRAME__233
 10
0.0
 20
0.0
 30
0.0
 70
   128
 62
  9
 71
 -88
 72
 -37
 73
 -89
  0
VERTEX
  8
72OFGO3D01_WP__FRAME__233
 10
0.0
 20
0.0
 30
0.0
 70
   128
 62
  9
 71
  37
 72
  33
 73
  88
  0
VERTEX
  8
72OFGO3D01_WP__FRAME__233
 10
0.0
 20
0.0
 30
0.0
 70
   128
 62
  9
 71
 -88
 72
 -33
 73
 -37
  0
VERTEX
  8
72OFGO3D01_WP__FRAME__233
 10
0.0
 20
0.0
 30
0.0
 70
   128
 62
  9
 71
  90
 72
  38
 73
  89
  0
VERTEX
  8
72OFGO3D01_WP__FRAME__233
 10
0.0
 20
0.0
 30
0.0
 70
   128
 62
  9
 71
 -89
 72
 -38
 73
 -90
  0
VERTEX
  8
72OFGO3D01_WP__FRAME__233
 10
0.0
 20
0.0
 30
0.0
 70
   128
 62
  9
 71
  38
 72
  37
 73
  89
  0
VERTEX
  8
72OFGO3D01_WP__FRAME__233
 10
0.0
 20
0.0
 30
0.0
 70
   128
 62
  9
 71
 -89
 72
 -37
 73
 -38
  0
VERTEX
  8
72OFGO3D01_WP__FRAME__233
 10
0.0
 20
0.0
 30
0.0
 70
   128
 62
  9
 71
  91
 72
  39
 73
  90
  0
VERTEX
  8
72OFGO3D01_WP__FRAME__233
 10
0.0
 20
0.0
 30
0.0
 70
   128
 62
  9
 71
 -90
 72
 -39
 73
 -91
  0
VERTEX
  8
72OFGO3D01_WP__FRAME__233
 10
0.0
 20
0.0
 30
0.0
 70
   128
 62
  9
 71
  39
 72
  38
 73
  90
  0
VERTEX
  8
72OFGO3D01_WP__FRAME__233
 10
0.0
 20
0.0
 30
0.0
 70
   128
 62
  9
 71
 -90
 72
 -38
 73
 -39
  0
VERTEX
  8
72OFGO3D01_WP__FRAME__233
 10
0.0
 20
0.0
 30
0.0
 70
   128
 62
  9
 71
  92
 72
  40
 73
  91
  0
VERTEX
  8
72OFGO3D01_WP__FRAME__233
 10
0.0
 20
0.0
 30
0.0
 70
   128
 62
  9
 71
 -91
 72
 -40
 73
 -92
  0
VERTEX
  8
72OFGO3D01_WP__FRAME__233
 10
0.0
 20
0.0
 30
0.0
 70
   128
 62
  9
 71
  40
 72
  39
 73
  91
  0
VERTEX
  8
72OFGO3D01_WP__FRAME__233
 10
0.0
 20
0.0
 30
0.0
 70
   128
 62
  9
 71
 -91
 72
 -39
 73
 -40
  0
VERTEX
  8
72OFGO3D01_WP__FRAME__233
 10
0.0
 20
0.0
 30
0.0
 70
   128
 62
  9
 71
  93
 72
  41
 73
  92
  0
VERTEX
  8
72OFGO3D01_WP__FRAME__233
 10
0.0
 20
0.0
 30
0.0
 70
   128
 62
  9
 71
 -92
 72
 -41
 73
 -93
  0
VERTEX
  8
72OFGO3D01_WP__FRAME__233
 10
0.0
 20
0.0
 30
0.0
 70
   128
 62
  9
 71
  41
 72
  40
 73
  92
  0
VERTEX
  8
72OFGO3D01_WP__FRAME__233
 10
0.0
 20
0.0
 30
0.0
 70
   128
 62
  9
 71
 -92
 72
 -40
 73
 -41
  0
VERTEX
  8
72OFGO3D01_WP__FRAME__233
 10
0.0
 20
0.0
 30
0.0
 70
   128
 62
  9
 71
  94
 72
  42
 73
  93
  0
VERTEX
  8
72OFGO3D01_WP__FRAME__233
 10
0.0
 20
0.0
 30
0.0
 70
   128
 62
  9
 71
 -93
 72
 -42
 73
 -94
  0
VERTEX
  8
72OFGO3D01_WP__FRAME__233
 10
0.0
 20
0.0
 30
0.0
 70
   128
 62
  9
 71
  42
 72
  41
 73
  93
  0
VERTEX
  8
72OFGO3D01_WP__FRAME__233
 10
0.0
 20
0.0
 30
0.0
 70
   128
 62
  9
 71
 -93
 72
 -41
 73
 -42
  0
VERTEX
  8
72OFGO3D01_WP__FRAME__233
 10
0.0
 20
0.0
 30
0.0
 70
   128
 62
  9
 71
  94
 72
  95
 73
  42
  0
VERTEX
  8
72OFGO3D01_WP__FRAME__233
 10
0.0
 20
0.0
 30
0.0
 70
   128
 62
  9
 71
 -42
 72
 -95
 73
 -94
  0
VERTEX
  8
72OFGO3D01_WP__FRAME__233
 10
0.0
 20
0.0
 30
0.0
 70
   128
 62
  9
 71
  95
 72
  21
 73
  42
  0
VERTEX
  8
72OFGO3D01_WP__FRAME__233
 10
0.0
 20
0.0
 30
0.0
 70
   128
 62
  9
 71
 -42
 72
 -21
 73
 -95
  0
VERTEX
  8
72OFGO3D01_WP__FRAME__233
 10
0.0
 20
0.0
 30
0.0
 70
   128
 62
  9
 71
  96
 72
  43
 73
  95
  0
VERTEX
  8
72OFGO3D01_WP__FRAME__233
 10
0.0
 20
0.0
 30
0.0
 70
   128
 62
  9
 71
 -95
 72
 -43
 73
 -96
  0
VERTEX
  8
72OFGO3D01_WP__FRAME__233
 10
0.0
 20
0.0
 30
0.0
 70
   128
 62
  9
 71
  43
 72
  21
 73
  95
  0
VERTEX
  8
72OFGO3D01_WP__FRAME__233
 10
0.0
 20
0.0
 30
0.0
 70
   128
 62
  9
 71
 -95
 72
 -21
 73
 -43
  0
VERTEX
  8
72OFGO3D01_WP__FRAME__233
 10
0.0
 20
0.0
 30
0.0
 70
   128
 62
  9
 71
  96
 72
  97
 73
  43
  0
VERTEX
  8
72OFGO3D01_WP__FRAME__233
 10
0.0
 20
0.0
 30
0.0
 70
   128
 62
  9
 71
 -43
 72
 -97
 73
 -96
  0
VERTEX
  8
72OFGO3D01_WP__FRAME__233
 10
0.0
 20
0.0
 30
0.0
 70
   128
 62
  9
 71
  43
 72
  97
 73
  44
  0
VERTEX
  8
72OFGO3D01_WP__FRAME__233
 10
0.0
 20
0.0
 30
0.0
 70
   128
 62
  9
 71
 -44
 72
 -97
 73
 -43
  0
VERTEX
  8
72OFGO3D01_WP__FRAME__233
 10
0.0
 20
0.0
 30
0.0
 70
   128
 62
  9
 71
  98
 72
  47
 73
  99
  0
VERTEX
  8
72OFGO3D01_WP__FRAME__233
 10
0.0
 20
0.0
 30
0.0
 70
   128
 62
  9
 71
 -99
 72
 -47
 73
 -98
  0
VERTEX
  8
72OFGO3D01_WP__FRAME__233
 10
0.0
 20
0.0
 30
0.0
 70
   128
 62
  9
 71
  100
 72
  48
 73
  98
  0
VERTEX
  8
72OFGO3D01_WP__FRAME__233
 10
0.0
 20
0.0
 30
0.0
 70
   128
 62
  9
 71
 -98
 72
 -48
 73
 -100
  0
VERTEX
  8
72OFGO3D01_WP__FRAME__233
 10
0.0
 20
0.0
 30
0.0
 70
   128
 62
  9
 71
  100
 72
  101
 73
  48
  0
VERTEX
  8
72OFGO3D01_WP__FRAME__233
 10
0.0
 20
0.0
 30
0.0
 70
   128
 62
  9
 71
 -48
 72
 -101
 73
 -100
  0
VERTEX
  8
72OFGO3D01_WP__FRAME__233
 10
0.0
 20
0.0
 30
0.0
 70
   128
 62
  9
 71
  48
 72
  101
 73
  52
  0
VERTEX
  8
72OFGO3D01_WP__FRAME__233
 10
0.0
 20
0.0
 30
0.0
 70
   128
 62
  9
 71
 -52
 72
 -101
 73
 -48
  0
VERTEX
  8
72OFGO3D01_WP__FRAME__233
 10
0.0
 20
0.0
 30
0.0
 70
   128
 62
  9
 71
  50
 72
  52
 73
  102
  0
VERTEX
  8
72OFGO3D01_WP__FRAME__233
 10
0.0
 20
0.0
 30
0.0
 70
   128
 62
  9
 71
 -102
 72
 -52
 73
 -50
  0
VERTEX
  8
72OFGO3D01_WP__FRAME__233
 10
0.0
 20
0.0
 30
0.0
 70
   128
 62
  9
 71
  102
 72
  52
 73
  101
  0
VERTEX
  8
72OFGO3D01_WP__FRAME__233
 10
0.0
 20
0.0
 30
0.0
 70
   128
 62
  9
 71
 -101
 72
 -52
 73
 -102
  0
VERTEX
  8
72OFGO3D01_WP__FRAME__233
 10
0.0
 20
0.0
 30
0.0
 70
   128
 62
  9
 71
  48
 72
  45
 73
  98
  0
VERTEX
  8
72OFGO3D01_WP__FRAME__233
 10
0.0
 20
0.0
 30
0.0
 70
   128
 62
  9
 71
 -98
 72
 -45
 73
 -48
  0
VERTEX
  8
72OFGO3D01_WP__FRAME__233
 10
0.0
 20
0.0
 30
0.0
 70
   128
 62
  9
 71
  45
 72
  47
 73
  98
  0
VERTEX
  8
72OFGO3D01_WP__FRAME__233
 10
0.0
 20
0.0
 30
0.0
 70
   128
 62
  9
 71
 -98
 72
 -47
 73
 -45
  0
VERTEX
  8
72OFGO3D01_WP__FRAME__233
 10
0.0
 20
0.0
 30
0.0
 70
   128
 62
  9
 71
  47
 72
  44
 73
  99
  0
VERTEX
  8
72OFGO3D01_WP__FRAME__233
 10
0.0
 20
0.0
 30
0.0
 70
   128
 62
  9
 71
 -99
 72
 -44
 73
 -47
  0
VERTEX
  8
72OFGO3D01_WP__FRAME__233
 10
0.0
 20
0.0
 30
0.0
 70
   128
 62
  9
 71
  99
 72
  44
 73
  97
  0
VERTEX
  8
72OFGO3D01_WP__FRAME__233
 10
0.0
 20
0.0
 30
0.0
 70
   128
 62
  9
 71
 -97
 72
 -44
 73
 -99
  0
VERTEX
  8
72OFGO3D01_WP__FRAME__233
 10
0.0
 20
0.0
 30
0.0
 70
   128
 62
  9
 71
  80
 72
  51
 73
  102
  0
VERTEX
  8
72OFGO3D01_WP__FRAME__233
 10
0.0
 20
0.0
 30
0.0
 70
   128
 62
  9
 71
 -102
 72
 -51
 73
 -80
  0
VERTEX
  8
72OFGO3D01_WP__FRAME__233
 10
0.0
 20
0.0
 30
0.0
 70
   128
 62
  9
 71
  51
 72
  50
 73
  102
  0
VERTEX
  8
72OFGO3D01_WP__FRAME__233
 10
0.0
 20
0.0
 30
0.0
 70
   128
 62
  9
 71
 -102
 72
 -50
 73
 -51
  0
VERTEX
  8
72OFGO3D01_WP__FRAME__233
 10
0.0
 20
0.0
 30
0.0
 70
   128
 62
  9
 71
  103
 72
  46
 73
  84
  0
VERTEX
  8
72OFGO3D01_WP__FRAME__233
 10
0.0
 20
0.0
 30
0.0
 70
   128
 62
  9
 71
 -84
 72
 -46
 73
 -103
  0
VERTEX
  8
72OFGO3D01_WP__FRAME__233
 10
0.0
 20
0.0
 30
0.0
 70
   128
 62
  9
 71
  46
 72
  49
 73
  84
  0
VERTEX
  8
72OFGO3D01_WP__FRAME__233
 10
0.0
 20
0.0
 30
0.0
 70
   128
 62
  9
 71
 -84
 72
 -49
 73
 -46
  0
VERTEX
  8
72OFGO3D01_WP__FRAME__233
 10
0.0
 20
0.0
 30
0.0
 70
   128
 62
  9
 71
  103
 72
  104
 73
  46
  0
VERTEX
  8
72OFGO3D01_WP__FRAME__233
 10
0.0
 20
0.0
 30
0.0
 70
   128
 62
  9
 71
 -46
 72
 -104
 73
 -103
  0
VERTEX
  8
72OFGO3D01_WP__FRAME__233
 10
0.0
 20
0.0
 30
0.0
 70
   128
 62
  9
 71
  104
 72
  56
 73
  46
  0
VERTEX
  8
72OFGO3D01_WP__FRAME__233
 10
0.0
 20
0.0
 30
0.0
 70
   128
 62
  9
 71
 -46
 72
 -56
 73
 -104
  0
VERTEX
  8
72OFGO3D01_WP__FRAME__233
 10
0.0
 20
0.0
 30
0.0
 70
   128
 62
  9
 71
  105
 72
  58
 73
  104
  0
VERTEX
  8
72OFGO3D01_WP__FRAME__233
 10
0.0
 20
0.0
 30
0.0
 70
   128
 62
  9
 71
 -104
 72
 -58
 73
 -105
  0
VERTEX
  8
72OFGO3D01_WP__FRAME__233
 10
0.0
 20
0.0
 30
0.0
 70
   128
 62
  9
 71
  58
 72
  56
 73
  104
  0
VERTEX
  8
72OFGO3D01_WP__FRAME__233
 10
0.0
 20
0.0
 30
0.0
 70
   128
 62
  9
 71
 -104
 72
 -56
 73
 -58
  0
VERTEX
  8
72OFGO3D01_WP__FRAME__233
 10
0.0
 20
0.0
 30
0.0
 70
   128
 62
  9
 71
  105
 72
  106
 73
  58
  0
VERTEX
  8
72OFGO3D01_WP__FRAME__233
 10
0.0
 20
0.0
 30
0.0
 70
   128
 62
  9
 71
 -58
 72
 -106
 73
 -105
  0
VERTEX
  8
72OFGO3D01_WP__FRAME__233
 10
0.0
 20
0.0
 30
0.0
 70
   128
 62
  9
 71
  106
 72
  59
 73
  58
  0
VERTEX
  8
72OFGO3D01_WP__FRAME__233
 10
0.0
 20
0.0
 30
0.0
 70
   128
 62
  9
 71
 -58
 72
 -59
 73
 -106
  0
VERTEX
  8
72OFGO3D01_WP__FRAME__233
 10
0.0
 20
0.0
 30
0.0
 70
   128
 62
  9
 71
  107
 72
  60
 73
  106
  0
VERTEX
  8
72OFGO3D01_WP__FRAME__233
 10
0.0
 20
0.0
 30
0.0
 70
   128
 62
  9
 71
 -106
 72
 -60
 73
 -107
  0
VERTEX
  8
72OFGO3D01_WP__FRAME__233
 10
0.0
 20
0.0
 30
0.0
 70
   128
 62
  9
 71
  60
 72
  59
 73
  106
  0
VERTEX
  8
72OFGO3D01_WP__FRAME__233
 10
0.0
 20
0.0
 30
0.0
 70
   128
 62
  9
 71
 -106
 72
 -59
 73
 -60
  0
VERTEX
  8
72OFGO3D01_WP__FRAME__233
 10
0.0
 20
0.0
 30
0.0
 70
   128
 62
  9
 71
  108
 72
  61
 73
  107
  0
VERTEX
  8
72OFGO3D01_WP__FRAME__233
 10
0.0
 20
0.0
 30
0.0
 70
   128
 62
  9
 71
 -107
 72
 -61
 73
 -108
  0
VERTEX
  8
72OFGO3D01_WP__FRAME__233
 10
0.0
 20
0.0
 30
0.0
 70
   128
 62
  9
 71
  61
 72
  60
 73
  107
  0
VERTEX
  8
72OFGO3D01_WP__FRAME__233
 10
0.0
 20
0.0
 30
0.0
 70
   128
 62
  9
 71
 -107
 72
 -60
 73
 -61
  0
VERTEX
  8
72OFGO3D01_WP__FRAME__233
 10
0.0
 20
0.0
 30
0.0
 70
   128
 62
  9
 71
  109
 72
  63
 73
  108
  0
VERTEX
  8
72OFGO3D01_WP__FRAME__233
 10
0.0
 20
0.0
 30
0.0
 70
   128
 62
  9
 71
 -108
 72
 -63
 73
 -109
  0
VERTEX
  8
72OFGO3D01_WP__FRAME__233
 10
0.0
 20
0.0
 30
0.0
 70
   128
 62
  9
 71
  63
 72
  61
 73
  108
  0
VERTEX
  8
72OFGO3D01_WP__FRAME__233
 10
0.0
 20
0.0
 30
0.0
 70
   128
 62
  9
 71
 -108
 72
 -61
 73
 -63
  0
VERTEX
  8
72OFGO3D01_WP__FRAME__233
 10
0.0
 20
0.0
 30
0.0
 70
   128
 62
  9
 71
  110
 72
  68
 73
  109
  0
VERTEX
  8
72OFGO3D01_WP__FRAME__233
 10
0.0
 20
0.0
 30
0.0
 70
   128
 62
  9
 71
 -109
 72
 -68
 73
 -110
  0
VERTEX
  8
72OFGO3D01_WP__FRAME__233
 10
0.0
 20
0.0
 30
0.0
 70
   128
 62
  9
 71
  68
 72
  63
 73
  109
  0
VERTEX
  8
72OFGO3D01_WP__FRAME__233
 10
0.0
 20
0.0
 30
0.0
 70
   128
 62
  9
 71
 -109
 72
 -63
 73
 -68
  0
VERTEX
  8
72OFGO3D01_WP__FRAME__233
 10
0.0
 20
0.0
 30
0.0
 70
   128
 62
  9
 71
  111
 72
  66
 73
  110
  0
VERTEX
  8
72OFGO3D01_WP__FRAME__233
 10
0.0
 20
0.0
 30
0.0
 70
   128
 62
  9
 71
 -110
 72
 -66
 73
 -111
  0
VERTEX
  8
72OFGO3D01_WP__FRAME__233
 10
0.0
 20
0.0
 30
0.0
 70
   128
 62
  9
 71
  66
 72
  68
 73
  110
  0
VERTEX
  8
72OFGO3D01_WP__FRAME__233
 10
0.0
 20
0.0
 30
0.0
 70
   128
 62
  9
 71
 -110
 72
 -68
 73
 -66
  0
VERTEX
  8
72OFGO3D01_WP__FRAME__233
 10
0.0
 20
0.0
 30
0.0
 70
   128
 62
  9
 71
  111
 72
  112
 73
  66
  0
VERTEX
  8
72OFGO3D01_WP__FRAME__233
 10
0.0
 20
0.0
 30
0.0
 70
   128
 62
  9
 71
 -66
 72
 -112
 73
 -111
  0
VERTEX
  8
72OFGO3D01_WP__FRAME__233
 10
0.0
 20
0.0
 30
0.0
 70
   128
 62
  9
 71
  112
 72
  67
 73
  66
  0
VERTEX
  8
72OFGO3D01_WP__FRAME__233
 10
0.0
 20
0.0
 30
0.0
 70
   128
 62
  9
 71
 -66
 72
 -67
 73
 -112
  0
VERTEX
  8
72OFGO3D01_WP__FRAME__233
 10
0.0
 20
0.0
 30
0.0
 70
   128
 62
  9
 71
  112
 72
  113
 73
  67
  0
VERTEX
  8
72OFGO3D01_WP__FRAME__233
 10
0.0
 20
0.0
 30
0.0
 70
   128
 62
  9
 71
 -67
 72
 -113
 73
 -112
  0
VERTEX
  8
72OFGO3D01_WP__FRAME__233
 10
0.0
 20
0.0
 30
0.0
 70
   128
 62
  9
 71
  67
 72
  113
 73
  69
  0
VERTEX
  8
72OFGO3D01_WP__FRAME__233
 10
0.0
 20
0.0
 30
0.0
 70
   128
 62
  9
 71
 -69
 72
 -113
 73
 -67
  0
VERTEX
  8
72OFGO3D01_WP__FRAME__233
 10
0.0
 20
0.0
 30
0.0
 70
   128
 62
  9
 71
  114
 72
  70
 73
  115
  0
VERTEX
  8
72OFGO3D01_WP__FRAME__233
 10
0.0
 20
0.0
 30
0.0
 70
   128
 62
  9
 71
 -115
 72
 -70
 73
 -114
  0
VERTEX
  8
72OFGO3D01_WP__FRAME__233
 10
0.0
 20
0.0
 30
0.0
 70
   128
 62
  9
 71
  114
 72
  65
 73
  70
  0
VERTEX
  8
72OFGO3D01_WP__FRAME__233
 10
0.0
 20
0.0
 30
0.0
 70
   128
 62
  9
 71
 -70
 72
 -65
 73
 -114
  0
VERTEX
  8
72OFGO3D01_WP__FRAME__233
 10
0.0
 20
0.0
 30
0.0
 70
   128
 62
  9
 71
  70
 72
  69
 73
  115
  0
VERTEX
  8
72OFGO3D01_WP__FRAME__233
 10
0.0
 20
0.0
 30
0.0
 70
   128
 62
  9
 71
 -115
 72
 -69
 73
 -70
  0
VERTEX
  8
72OFGO3D01_WP__FRAME__233
 10
0.0
 20
0.0
 30
0.0
 70
   128
 62
  9
 71
  115
 72
  69
 73
  113
  0
VERTEX
  8
72OFGO3D01_WP__FRAME__233
 10
0.0
 20
0.0
 30
0.0
 70
   128
 62
  9
 71
 -113
 72
 -69
 73
 -115
  0
VERTEX
  8
72OFGO3D01_WP__FRAME__233
 10
0.0
 20
0.0
 30
0.0
 70
   128
 62
  9
 71
  116
 72
  64
 73
  114
  0
VERTEX
  8
72OFGO3D01_WP__FRAME__233
 10
0.0
 20
0.0
 30
0.0
 70
   128
 62
  9
 71
 -114
 72
 -64
 73
 -116
  0
VERTEX
  8
72OFGO3D01_WP__FRAME__233
 10
0.0
 20
0.0
 30
0.0
 70
   128
 62
  9
 71
  64
 72
  65
 73
  114
  0
VERTEX
  8
72OFGO3D01_WP__FRAME__233
 10
0.0
 20
0.0
 30
0.0
 70
   128
 62
  9
 71
 -114
 72
 -65
 73
 -64
  0
VERTEX
  8
72OFGO3D01_WP__FRAME__233
 10
0.0
 20
0.0
 30
0.0
 70
   128
 62
  9
 71
  64
 72
  116
 73
  71
  0
VERTEX
  8
72OFGO3D01_WP__FRAME__233
 10
0.0
 20
0.0
 30
0.0
 70
   128
 62
  9
 71
 -71
 72
 -116
 73
 -64
  0
VERTEX
  8
72OFGO3D01_WP__FRAME__233
 10
0.0
 20
0.0
 30
0.0
 70
   128
 62
  9
 71
  116
 72
  117
 73
  71
  0
VERTEX
  8
72OFGO3D01_WP__FRAME__233
 10
0.0
 20
0.0
 30
0.0
 70
   128
 62
  9
 71
 -71
 72
 -117
 73
 -116
  0
VERTEX
  8
72OFGO3D01_WP__FRAME__233
 10
0.0
 20
0.0
 30
0.0
 70
   128
 62
  9
 71
  118
 72
  73
 73
  119
  0
VERTEX
  8
72OFGO3D01_WP__FRAME__233
 10
0.0
 20
0.0
 30
0.0
 70
   128
 62
  9
 71
 -119
 72
 -73
 73
 -118
  0
VERTEX
  8
72OFGO3D01_WP__FRAME__233
 10
0.0
 20
0.0
 30
0.0
 70
   128
 62
  9
 71
  118
 72
  72
 73
  73
  0
VERTEX
  8
72OFGO3D01_WP__FRAME__233
 10
0.0
 20
0.0
 30
0.0
 70
   128
 62
  9
 71
 -73
 72
 -72
 73
 -118
  0
VERTEX
  8
72OFGO3D01_WP__FRAME__233
 10
0.0
 20
0.0
 30
0.0
 70
   128
 62
  9
 71
  73
 72
  71
 73
  119
  0
VERTEX
  8
72OFGO3D01_WP__FRAME__233
 10
0.0
 20
0.0
 30
0.0
 70
   128
 62
  9
 71
 -119
 72
 -71
 73
 -73
  0
VERTEX
  8
72OFGO3D01_WP__FRAME__233
 10
0.0
 20
0.0
 30
0.0
 70
   128
 62
  9
 71
  71
 72
  117
 73
  119
  0
VERTEX
  8
72OFGO3D01_WP__FRAME__233
 10
0.0
 20
0.0
 30
0.0
 70
   128
 62
  9
 71
 -119
 72
 -117
 73
 -71
  0
VERTEX
  8
72OFGO3D01_WP__FRAME__233
 10
0.0
 20
0.0
 30
0.0
 70
   128
 62
  9
 71
  118
 72
  120
 73
  72
  0
VERTEX
  8
72OFGO3D01_WP__FRAME__233
 10
0.0
 20
0.0
 30
0.0
 70
   128
 62
  9
 71
 -72
 72
 -120
 73
 -118
  0
VERTEX
  8
72OFGO3D01_WP__FRAME__233
 10
0.0
 20
0.0
 30
0.0
 70
   128
 62
  9
 71
  120
 72
  74
 73
  72
  0
VERTEX
  8
72OFGO3D01_WP__FRAME__233
 10
0.0
 20
0.0
 30
0.0
 70
   128
 62
  9
 71
 -72
 72
 -74
 73
 -120
  0
VERTEX
  8
72OFGO3D01_WP__FRAME__233
 10
0.0
 20
0.0
 30
0.0
 70
   128
 62
  9
 71
  121
 72
  75
 73
  120
  0
VERTEX
  8
72OFGO3D01_WP__FRAME__233
 10
0.0
 20
0.0
 30
0.0
 70
   128
 62
  9
 71
 -120
 72
 -75
 73
 -121
  0
VERTEX
  8
72OFGO3D01_WP__FRAME__233
 10
0.0
 20
0.0
 30
0.0
 70
   128
 62
  9
 71
  75
 72
  74
 73
  120
  0
VERTEX
  8
72OFGO3D01_WP__FRAME__233
 10
0.0
 20
0.0
 30
0.0
 70
   128
 62
  9
 71
 -120
 72
 -74
 73
 -75
  0
VERTEX
  8
72OFGO3D01_WP__FRAME__233
 10
0.0
 20
0.0
 30
0.0
 70
   128
 62
  9
 71
  121
 72
  122
 73
  75
  0
VERTEX
  8
72OFGO3D01_WP__FRAME__233
 10
0.0
 20
0.0
 30
0.0
 70
   128
 62
  9
 71
 -75
 72
 -122
 73
 -121
  0
VERTEX
  8
72OFGO3D01_WP__FRAME__233
 10
0.0
 20
0.0
 30
0.0
 70
   128
 62
  9
 71
  122
 72
  76
 73
  75
  0
VERTEX
  8
72OFGO3D01_WP__FRAME__233
 10
0.0
 20
0.0
 30
0.0
 70
   128
 62
  9
 71
 -75
 72
 -76
 73
 -122
  0
VERTEX
  8
72OFGO3D01_WP__FRAME__233
 10
0.0
 20
0.0
 30
0.0
 70
   128
 62
  9
 71
  123
 72
  77
 73
  122
  0
VERTEX
  8
72OFGO3D01_WP__FRAME__233
 10
0.0
 20
0.0
 30
0.0
 70
   128
 62
  9
 71
 -122
 72
 -77
 73
 -123
  0
VERTEX
  8
72OFGO3D01_WP__FRAME__233
 10
0.0
 20
0.0
 30
0.0
 70
   128
 62
  9
 71
  77
 72
  76
 73
  122
  0
VERTEX
  8
72OFGO3D01_WP__FRAME__233
 10
0.0
 20
0.0
 30
0.0
 70
   128
 62
  9
 71
 -122
 72
 -76
 73
 -77
  0
VERTEX
  8
72OFGO3D01_WP__FRAME__233
 10
0.0
 20
0.0
 30
0.0
 70
   128
 62
  9
 71
  123
 72
  124
 73
  77
  0
VERTEX
  8
72OFGO3D01_WP__FRAME__233
 10
0.0
 20
0.0
 30
0.0
 70
   128
 62
  9
 71
 -77
 72
 -124
 73
 -123
  0
VERTEX
  8
72OFGO3D01_WP__FRAME__233
 10
0.0
 20
0.0
 30
0.0
 70
   128
 62
  9
 71
  124
 72
  78
 73
  77
  0
VERTEX
  8
72OFGO3D01_WP__FRAME__233
 10
0.0
 20
0.0
 30
0.0
 70
   128
 62
  9
 71
 -77
 72
 -78
 73
 -124
  0
VERTEX
  8
72OFGO3D01_WP__FRAME__233
 10
0.0
 20
0.0
 30
0.0
 70
   128
 62
  9
 71
  125
 72
  79
 73
  124
  0
VERTEX
  8
72OFGO3D01_WP__FRAME__233
 10
0.0
 20
0.0
 30
0.0
 70
   128
 62
  9
 71
 -124
 72
 -79
 73
 -125
  0
VERTEX
  8
72OFGO3D01_WP__FRAME__233
 10
0.0
 20
0.0
 30
0.0
 70
   128
 62
  9
 71
  79
 72
  78
 73
  124
  0
VERTEX
  8
72OFGO3D01_WP__FRAME__233
 10
0.0
 20
0.0
 30
0.0
 70
   128
 62
  9
 71
 -124
 72
 -78
 73
 -79
  0
VERTEX
  8
72OFGO3D01_WP__FRAME__233
 10
0.0
 20
0.0
 30
0.0
 70
   128
 62
  9
 71
  126
 72
  62
 73
  125
  0
VERTEX
  8
72OFGO3D01_WP__FRAME__233
 10
0.0
 20
0.0
 30
0.0
 70
   128
 62
  9
 71
 -125
 72
 -62
 73
 -126
  0
VERTEX
  8
72OFGO3D01_WP__FRAME__233
 10
0.0
 20
0.0
 30
0.0
 70
   128
 62
  9
 71
  62
 72
  79
 73
  125
  0
VERTEX
  8
72OFGO3D01_WP__FRAME__233
 10
0.0
 20
0.0
 30
0.0
 70
   128
 62
  9
 71
 -125
 72
 -79
 73
 -62
  0
VERTEX
  8
72OFGO3D01_WP__FRAME__233
 10
0.0
 20
0.0
 30
0.0
 70
   128
 62
  9
 71
  127
 72
  57
 73
  126
  0
VERTEX
  8
72OFGO3D01_WP__FRAME__233
 10
0.0
 20
0.0
 30
0.0
 70
   128
 62
  9
 71
 -126
 72
 -57
 73
 -127
  0
VERTEX
  8
72OFGO3D01_WP__FRAME__233
 10
0.0
 20
0.0
 30
0.0
 70
   128
 62
  9
 71
  57
 72
  62
 73
  126
  0
VERTEX
  8
72OFGO3D01_WP__FRAME__233
 10
0.0
 20
0.0
 30
0.0
 70
   128
 62
  9
 71
 -126
 72
 -62
 73
 -57
  0
VERTEX
  8
72OFGO3D01_WP__FRAME__233
 10
0.0
 20
0.0
 30
0.0
 70
   128
 62
  9
 71
  128
 72
  15
 73
  127
  0
VERTEX
  8
72OFGO3D01_WP__FRAME__233
 10
0.0
 20
0.0
 30
0.0
 70
   128
 62
  9
 71
 -127
 72
 -15
 73
 -128
  0
VERTEX
  8
72OFGO3D01_WP__FRAME__233
 10
0.0
 20
0.0
 30
0.0
 70
   128
 62
  9
 71
  15
 72
  57
 73
  127
  0
VERTEX
  8
72OFGO3D01_WP__FRAME__233
 10
0.0
 20
0.0
 30
0.0
 70
   128
 62
  9
 71
 -127
 72
 -57
 73
 -15
  0
VERTEX
  8
72OFGO3D01_WP__FRAME__233
 10
0.0
 20
0.0
 30
0.0
 70
   128
 62
  9
 71
  10
 72
  9
 73
  128
  0
VERTEX
  8
72OFGO3D01_WP__FRAME__233
 10
0.0
 20
0.0
 30
0.0
 70
   128
 62
  9
 71
 -128
 72
 -9
 73
 -10
  0
VERTEX
  8
72OFGO3D01_WP__FRAME__233
 10
0.0
 20
0.0
 30
0.0
 70
   128
 62
  9
 71
  9
 72
  15
 73
  128
  0
VERTEX
  8
72OFGO3D01_WP__FRAME__233
 10
0.0
 20
0.0
 30
0.0
 70
   128
 62
  9
 71
 -128
 72
 -15
 73
 -9
  0
VERTEX
  8
72OFGO3D01_WP__FRAME__233
 10
0.0
 20
0.0
 30
0.0
 70
   128
 62
  9
 71
  8
 72
  5
 73
  11
  0
VERTEX
  8
72OFGO3D01_WP__FRAME__233
 10
0.0
 20
0.0
 30
0.0
 70
   128
 62
  9
 71
 -11
 72
 -5
 73
 -8
  0
VERTEX
  8
72OFGO3D01_WP__FRAME__233
 10
0.0
 20
0.0
 30
0.0
 70
   128
 62
  9
 71
  5
 72
  129
 73
  11
  0
VERTEX
  8
72OFGO3D01_WP__FRAME__233
 10
0.0
 20
0.0
 30
0.0
 70
   128
 62
  9
 71
 -11
 72
 -129
 73
 -5
  0
VERTEX
  8
72OFGO3D01_WP__FRAME__233
 10
0.0
 20
0.0
 30
0.0
 70
   128
 62
  9
 71
  129
 72
  130
 73
  11
  0
VERTEX
  8
72OFGO3D01_WP__FRAME__233
 10
0.0
 20
0.0
 30
0.0
 70
   128
 62
  9
 71
 -11
 72
 -130
 73
 -129
  0
VERTEX
  8
72OFGO3D01_WP__FRAME__233
 10
0.0
 20
0.0
 30
0.0
 70
   128
 62
  9
 71
  11
 72
  130
 73
  12
  0
VERTEX
  8
72OFGO3D01_WP__FRAME__233
 10
0.0
 20
0.0
 30
0.0
 70
   128
 62
  9
 71
 -12
 72
 -130
 73
 -11
  0
VERTEX
  8
72OFGO3D01_WP__FRAME__233
 10
0.0
 20
0.0
 30
0.0
 70
   128
 62
  9
 71
  131
 72
  13
 73
  132
  0
VERTEX
  8
72OFGO3D01_WP__FRAME__233
 10
0.0
 20
0.0
 30
0.0
 70
   128
 62
  9
 71
 -132
 72
 -13
 73
 -131
  0
VERTEX
  8
72OFGO3D01_WP__FRAME__233
 10
0.0
 20
0.0
 30
0.0
 70
   128
 62
  9
 71
  13
 72
  131
 73
  14
  0
VERTEX
  8
72OFGO3D01_WP__FRAME__233
 10
0.0
 20
0.0
 30
0.0
 70
   128
 62
  9
 71
 -14
 72
 -131
 73
 -13
  0
VERTEX
  8
72OFGO3D01_WP__FRAME__233
 10
0.0
 20
0.0
 30
0.0
 70
   128
 62
  9
 71
  133
 72
  16
 73
  134
  0
VERTEX
  8
72OFGO3D01_WP__FRAME__233
 10
0.0
 20
0.0
 30
0.0
 70
   128
 62
  9
 71
 -134
 72
 -16
 73
 -133
  0
VERTEX
  8
72OFGO3D01_WP__FRAME__233
 10
0.0
 20
0.0
 30
0.0
 70
   128
 62
  9
 71
  16
 72
  133
 73
  19
  0
VERTEX
  8
72OFGO3D01_WP__FRAME__233
 10
0.0
 20
0.0
 30
0.0
 70
   128
 62
  9
 71
 -19
 72
 -133
 73
 -16
  0
VERTEX
  8
72OFGO3D01_WP__FRAME__233
 10
0.0
 20
0.0
 30
0.0
 70
   128
 62
  9
 71
  17
 72
  19
 73
  135
  0
VERTEX
  8
72OFGO3D01_WP__FRAME__233
 10
0.0
 20
0.0
 30
0.0
 70
   128
 62
  9
 71
 -135
 72
 -19
 73
 -17
  0
VERTEX
  8
72OFGO3D01_WP__FRAME__233
 10
0.0
 20
0.0
 30
0.0
 70
   128
 62
  9
 71
  135
 72
  19
 73
  133
  0
VERTEX
  8
72OFGO3D01_WP__FRAME__233
 10
0.0
 20
0.0
 30
0.0
 70
   128
 62
  9
 71
 -133
 72
 -19
 73
 -135
  0
VERTEX
  8
72OFGO3D01_WP__FRAME__233
 10
0.0
 20
0.0
 30
0.0
 70
   128
 62
  9
 71
  16
 72
  14
 73
  134
  0
VERTEX
  8
72OFGO3D01_WP__FRAME__233
 10
0.0
 20
0.0
 30
0.0
 70
   128
 62
  9
 71
 -134
 72
 -14
 73
 -16
  0
VERTEX
  8
72OFGO3D01_WP__FRAME__233
 10
0.0
 20
0.0
 30
0.0
 70
   128
 62
  9
 71
  134
 72
  14
 73
  131
  0
VERTEX
  8
72OFGO3D01_WP__FRAME__233
 10
0.0
 20
0.0
 30
0.0
 70
   128
 62
  9
 71
 -131
 72
 -14
 73
 -134
  0
VERTEX
  8
72OFGO3D01_WP__FRAME__233
 10
0.0
 20
0.0
 30
0.0
 70
   128
 62
  9
 71
  13
 72
  12
 73
  132
  0
VERTEX
  8
72OFGO3D01_WP__FRAME__233
 10
0.0
 20
0.0
 30
0.0
 70
   128
 62
  9
 71
 -132
 72
 -12
 73
 -13
  0
VERTEX
  8
72OFGO3D01_WP__FRAME__233
 10
0.0
 20
0.0
 30
0.0
 70
   128
 62
  9
 71
  132
 72
  12
 73
  130
  0
VERTEX
  8
72OFGO3D01_WP__FRAME__233
 10
0.0
 20
0.0
 30
0.0
 70
   128
 62
  9
 71
 -130
 72
 -12
 73
 -132
  0
VERTEX
  8
72OFGO3D01_WP__FRAME__233
 10
0.0
 20
0.0
 30
0.0
 70
   128
 62
  9
 71
  136
 72
  18
 73
  135
  0
VERTEX
  8
72OFGO3D01_WP__FRAME__233
 10
0.0
 20
0.0
 30
0.0
 70
   128
 62
  9
 71
 -135
 72
 -18
 73
 -136
  0
VERTEX
  8
72OFGO3D01_WP__FRAME__233
 10
0.0
 20
0.0
 30
0.0
 70
   128
 62
  9
 71
  18
 72
  17
 73
  135
  0
VERTEX
  8
72OFGO3D01_WP__FRAME__233
 10
0.0
 20
0.0
 30
0.0
 70
   128
 62
  9
 71
 -135
 72
 -17
 73
 -18
  0
VERTEX
  8
72OFGO3D01_WP__FRAME__233
 10
0.0
 20
0.0
 30
0.0
 70
   128
 62
  9
 71
  136
 72
  137
 73
  18
  0
VERTEX
  8
72OFGO3D01_WP__FRAME__233
 10
0.0
 20
0.0
 30
0.0
 70
   128
 62
  9
 71
 -18
 72
 -137
 73
 -136
  0
VERTEX
  8
72OFGO3D01_WP__FRAME__233
 10
0.0
 20
0.0
 30
0.0
 70
   128
 62
  9
 71
  137
 72
  20
 73
  18
  0
VERTEX
  8
72OFGO3D01_WP__FRAME__233
 10
0.0
 20
0.0
 30
0.0
 70
   128
 62
  9
 71
 -18
 72
 -20
 73
 -137
  0
VERTEX
  8
72OFGO3D01_WP__FRAME__233
 10
0.0
 20
0.0
 30
0.0
 70
   128
 62
  9
 71
  138
 72
  22
 73
  137
  0
VERTEX
  8
72OFGO3D01_WP__FRAME__233
 10
0.0
 20
0.0
 30
0.0
 70
   128
 62
  9
 71
 -137
 72
 -22
 73
 -138
  0
VERTEX
  8
72OFGO3D01_WP__FRAME__233
 10
0.0
 20
0.0
 30
0.0
 70
   128
 62
  9
 71
  22
 72
  20
 73
  137
  0
VERTEX
  8
72OFGO3D01_WP__FRAME__233
 10
0.0
 20
0.0
 30
0.0
 70
   128
 62
  9
 71
 -137
 72
 -20
 73
 -22
  0
VERTEX
  8
72OFGO3D01_WP__FRAME__233
 10
0.0
 20
0.0
 30
0.0
 70
   128
 62
  9
 71
  139
 72
  23
 73
  138
  0
VERTEX
  8
72OFGO3D01_WP__FRAME__233
 10
0.0
 20
0.0
 30
0.0
 70
   128
 62
  9
 71
 -138
 72
 -23
 73
 -139
  0
VERTEX
  8
72OFGO3D01_WP__FRAME__233
 10
0.0
 20
0.0
 30
0.0
 70
   128
 62
  9
 71
  23
 72
  22
 73
  138
  0
VERTEX
  8
72OFGO3D01_WP__FRAME__233
 10
0.0
 20
0.0
 30
0.0
 70
   128
 62
  9
 71
 -138
 72
 -22
 73
 -23
  0
VERTEX
  8
72OFGO3D01_WP__FRAME__233
 10
0.0
 20
0.0
 30
0.0
 70
   128
 62
  9
 71
  140
 72
  24
 73
  139
  0
VERTEX
  8
72OFGO3D01_WP__FRAME__233
 10
0.0
 20
0.0
 30
0.0
 70
   128
 62
  9
 71
 -139
 72
 -24
 73
 -140
  0
VERTEX
  8
72OFGO3D01_WP__FRAME__233
 10
0.0
 20
0.0
 30
0.0
 70
   128
 62
  9
 71
  24
 72
  23
 73
  139
  0
VERTEX
  8
72OFGO3D01_WP__FRAME__233
 10
0.0
 20
0.0
 30
0.0
 70
   128
 62
  9
 71
 -139
 72
 -23
 73
 -24
  0
VERTEX
  8
72OFGO3D01_WP__FRAME__233
 10
0.0
 20
0.0
 30
0.0
 70
   128
 62
  9
 71
  141
 72
  25
 73
  140
  0
VERTEX
  8
72OFGO3D01_WP__FRAME__233
 10
0.0
 20
0.0
 30
0.0
 70
   128
 62
  9
 71
 -140
 72
 -25
 73
 -141
  0
VERTEX
  8
72OFGO3D01_WP__FRAME__233
 10
0.0
 20
0.0
 30
0.0
 70
   128
 62
  9
 71
  25
 72
  24
 73
  140
  0
VERTEX
  8
72OFGO3D01_WP__FRAME__233
 10
0.0
 20
0.0
 30
0.0
 70
   128
 62
  9
 71
 -140
 72
 -24
 73
 -25
  0
VERTEX
  8
72OFGO3D01_WP__FRAME__233
 10
0.0
 20
0.0
 30
0.0
 70
   128
 62
  9
 71
  142
 72
  26
 73
  141
  0
VERTEX
  8
72OFGO3D01_WP__FRAME__233
 10
0.0
 20
0.0
 30
0.0
 70
   128
 62
  9
 71
 -141
 72
 -26
 73
 -142
  0
VERTEX
  8
72OFGO3D01_WP__FRAME__233
 10
0.0
 20
0.0
 30
0.0
 70
   128
 62
  9
 71
  26
 72
  25
 73
  141
  0
VERTEX
  8
72OFGO3D01_WP__FRAME__233
 10
0.0
 20
0.0
 30
0.0
 70
   128
 62
  9
 71
 -141
 72
 -25
 73
 -26
  0
VERTEX
  8
72OFGO3D01_WP__FRAME__233
 10
0.0
 20
0.0
 30
0.0
 70
   128
 62
  9
 71
  143
 72
  27
 73
  142
  0
VERTEX
  8
72OFGO3D01_WP__FRAME__233
 10
0.0
 20
0.0
 30
0.0
 70
   128
 62
  9
 71
 -142
 72
 -27
 73
 -143
  0
VERTEX
  8
72OFGO3D01_WP__FRAME__233
 10
0.0
 20
0.0
 30
0.0
 70
   128
 62
  9
 71
  27
 72
  26
 73
  142
  0
VERTEX
  8
72OFGO3D01_WP__FRAME__233
 10
0.0
 20
0.0
 30
0.0
 70
   128
 62
  9
 71
 -142
 72
 -26
 73
 -27
  0
VERTEX
  8
72OFGO3D01_WP__FRAME__233
 10
0.0
 20
0.0
 30
0.0
 70
   128
 62
  9
 71
  144
 72
  28
 73
  143
  0
VERTEX
  8
72OFGO3D01_WP__FRAME__233
 10
0.0
 20
0.0
 30
0.0
 70
   128
 62
  9
 71
 -143
 72
 -28
 73
 -144
  0
VERTEX
  8
72OFGO3D01_WP__FRAME__233
 10
0.0
 20
0.0
 30
0.0
 70
   128
 62
  9
 71
  28
 72
  27
 73
  143
  0
VERTEX
  8
72OFGO3D01_WP__FRAME__233
 10
0.0
 20
0.0
 30
0.0
 70
   128
 62
  9
 71
 -143
 72
 -27
 73
 -28
  0
VERTEX
  8
72OFGO3D01_WP__FRAME__233
 10
0.0
 20
0.0
 30
0.0
 70
   128
 62
  9
 71
  145
 72
  29
 73
  144
  0
VERTEX
  8
72OFGO3D01_WP__FRAME__233
 10
0.0
 20
0.0
 30
0.0
 70
   128
 62
  9
 71
 -144
 72
 -29
 73
 -145
  0
VERTEX
  8
72OFGO3D01_WP__FRAME__233
 10
0.0
 20
0.0
 30
0.0
 70
   128
 62
  9
 71
  29
 72
  28
 73
  144
  0
VERTEX
  8
72OFGO3D01_WP__FRAME__233
 10
0.0
 20
0.0
 30
0.0
 70
   128
 62
  9
 71
 -144
 72
 -28
 73
 -29
  0
VERTEX
  8
72OFGO3D01_WP__FRAME__233
 10
0.0
 20
0.0
 30
0.0
 70
   128
 62
  9
 71
  146
 72
  30
 73
  145
  0
VERTEX
  8
72OFGO3D01_WP__FRAME__233
 10
0.0
 20
0.0
 30
0.0
 70
   128
 62
  9
 71
 -145
 72
 -30
 73
 -146
  0
VERTEX
  8
72OFGO3D01_WP__FRAME__233
 10
0.0
 20
0.0
 30
0.0
 70
   128
 62
  9
 71
  30
 72
  29
 73
  145
  0
VERTEX
  8
72OFGO3D01_WP__FRAME__233
 10
0.0
 20
0.0
 30
0.0
 70
   128
 62
  9
 71
 -145
 72
 -29
 73
 -30
  0
VERTEX
  8
72OFGO3D01_WP__FRAME__233
 10
0.0
 20
0.0
 30
0.0
 70
   128
 62
  9
 71
  147
 72
  31
 73
  146
  0
VERTEX
  8
72OFGO3D01_WP__FRAME__233
 10
0.0
 20
0.0
 30
0.0
 70
   128
 62
  9
 71
 -146
 72
 -31
 73
 -147
  0
VERTEX
  8
72OFGO3D01_WP__FRAME__233
 10
0.0
 20
0.0
 30
0.0
 70
   128
 62
  9
 71
  31
 72
  30
 73
  146
  0
VERTEX
  8
72OFGO3D01_WP__FRAME__233
 10
0.0
 20
0.0
 30
0.0
 70
   128
 62
  9
 71
 -146
 72
 -30
 73
 -31
  0
VERTEX
  8
72OFGO3D01_WP__FRAME__233
 10
0.0
 20
0.0
 30
0.0
 70
   128
 62
  9
 71
  148
 72
  35
 73
  147
  0
VERTEX
  8
72OFGO3D01_WP__FRAME__233
 10
0.0
 20
0.0
 30
0.0
 70
   128
 62
  9
 71
 -147
 72
 -35
 73
 -148
  0
VERTEX
  8
72OFGO3D01_WP__FRAME__233
 10
0.0
 20
0.0
 30
0.0
 70
   128
 62
  9
 71
  35
 72
  31
 73
  147
  0
VERTEX
  8
72OFGO3D01_WP__FRAME__233
 10
0.0
 20
0.0
 30
0.0
 70
   128
 62
  9
 71
 -147
 72
 -31
 73
 -35
  0
VERTEX
  8
72OFGO3D01_WP__FRAME__233
 10
0.0
 20
0.0
 30
0.0
 70
   128
 62
  9
 71
  86
 72
  34
 73
  148
  0
VERTEX
  8
72OFGO3D01_WP__FRAME__233
 10
0.0
 20
0.0
 30
0.0
 70
   128
 62
  9
 71
 -148
 72
 -34
 73
 -86
  0
VERTEX
  8
72OFGO3D01_WP__FRAME__233
 10
0.0
 20
0.0
 30
0.0
 70
   128
 62
  9
 71
  34
 72
  35
 73
  148
  0
VERTEX
  8
72OFGO3D01_WP__FRAME__233
 10
0.0
 20
0.0
 30
0.0
 70
   128
 62
  9
 71
 -148
 72
 -35
 73
 -34
  0
VERTEX
  8
72OFGO3D01_WP__FRAME__233
 10
0.0
 20
0.0
 30
0.0
 70
   128
 62
  9
 71
  7
 72
  1
 73
  5
  0
VERTEX
  8
72OFGO3D01_WP__FRAME__233
 10
0.0
 20
0.0
 30
0.0
 70
   128
 62
  9
 71
 -5
 72
 -1
 73
 -7
  0
VERTEX
  8
72OFGO3D01_WP__FRAME__233
 10
0.0
 20
0.0
 30
0.0
 70
   128
 62
  9
 71
  7
 72
  2
 73
  1
  0
VERTEX
  8
72OFGO3D01_WP__FRAME__233
 10
0.0
 20
0.0
 30
0.0
 70
   128
 62
  9
 71
 -1
 72
 -2
 73
 -7
  0
VERTEX
  8
72OFGO3D01_WP__FRAME__233
 10
0.0
 20
0.0
 30
0.0
 70
   128
 62
  9
 71
  5
 72
  1
 73
  130
  0
VERTEX
  8
72OFGO3D01_WP__FRAME__233
 10
0.0
 20
0.0
 30
0.0
 70
   128
 62
  9
 71
 -130
 72
 -1
 73
 -5
  0
VERTEX
  8
72OFGO3D01_WP__FRAME__233
 10
0.0
 20
0.0
 30
0.0
 70
   128
 62
  9
 71
  5
 72
  130
 73
  129
  0
VERTEX
  8
72OFGO3D01_WP__FRAME__233
 10
0.0
 20
0.0
 30
0.0
 70
   128
 62
  9
 71
 -129
 72
 -130
 73
 -5
  0
VERTEX
  8
72OFGO3D01_WP__FRAME__233
 10
0.0
 20
0.0
 30
0.0
 70
   128
 62
  9
 71
  128
 72
  131
 73
  10
  0
VERTEX
  8
72OFGO3D01_WP__FRAME__233
 10
0.0
 20
0.0
 30
0.0
 70
   128
 62
  9
 71
 -10
 72
 -131
 73
 -128
  0
VERTEX
  8
72OFGO3D01_WP__FRAME__233
 10
0.0
 20
0.0
 30
0.0
 70
   128
 62
  9
 71
  127
 72
  103
 73
  128
  0
VERTEX
  8
72OFGO3D01_WP__FRAME__233
 10
0.0
 20
0.0
 30
0.0
 70
   128
 62
  9
 71
 -128
 72
 -103
 73
 -127
  0
VERTEX
  8
72OFGO3D01_WP__FRAME__233
 10
0.0
 20
0.0
 30
0.0
 70
   128
 62
  9
 71
  126
 72
  107
 73
  127
  0
VERTEX
  8
72OFGO3D01_WP__FRAME__233
 10
0.0
 20
0.0
 30
0.0
 70
   128
 62
  9
 71
 -127
 72
 -107
 73
 -126
  0
VERTEX
  8
72OFGO3D01_WP__FRAME__233
 10
0.0
 20
0.0
 30
0.0
 70
   128
 62
  9
 71
  125
 72
  122
 73
  126
  0
VERTEX
  8
72OFGO3D01_WP__FRAME__233
 10
0.0
 20
0.0
 30
0.0
 70
   128
 62
  9
 71
 -126
 72
 -122
 73
 -125
  0
VERTEX
  8
72OFGO3D01_WP__FRAME__233
 10
0.0
 20
0.0
 30
0.0
 70
   128
 62
  9
 71
  125
 72
  124
 73
  122
  0
VERTEX
  8
72OFGO3D01_WP__FRAME__233
 10
0.0
 20
0.0
 30
0.0
 70
   128
 62
  9
 71
 -122
 72
 -124
 73
 -125
  0
VERTEX
  8
72OFGO3D01_WP__FRAME__233
 10
0.0
 20
0.0
 30
0.0
 70
   128
 62
  9
 71
  124
 72
  123
 73
  122
  0
VERTEX
  8
72OFGO3D01_WP__FRAME__233
 10
0.0
 20
0.0
 30
0.0
 70
   128
 62
  9
 71
 -122
 72
 -123
 73
 -124
  0
VERTEX
  8
72OFGO3D01_WP__FRAME__233
 10
0.0
 20
0.0
 30
0.0
 70
   128
 62
  9
 71
  122
 72
  121
 73
  126
  0
VERTEX
  8
72OFGO3D01_WP__FRAME__233
 10
0.0
 20
0.0
 30
0.0
 70
   128
 62
  9
 71
 -126
 72
 -121
 73
 -122
  0
VERTEX
  8
72OFGO3D01_WP__FRAME__233
 10
0.0
 20
0.0
 30
0.0
 70
   128
 62
  9
 71
  120
 72
  118
 73
  121
  0
VERTEX
  8
72OFGO3D01_WP__FRAME__233
 10
0.0
 20
0.0
 30
0.0
 70
   128
 62
  9
 71
 -121
 72
 -118
 73
 -120
  0
VERTEX
  8
72OFGO3D01_WP__FRAME__233
 10
0.0
 20
0.0
 30
0.0
 70
   128
 62
  9
 71
  119
 72
  117
 73
  118
  0
VERTEX
  8
72OFGO3D01_WP__FRAME__233
 10
0.0
 20
0.0
 30
0.0
 70
   128
 62
  9
 71
 -118
 72
 -117
 73
 -119
  0
VERTEX
  8
72OFGO3D01_WP__FRAME__233
 10
0.0
 20
0.0
 30
0.0
 70
   128
 62
  9
 71
  117
 72
  116
 73
  118
  0
VERTEX
  8
72OFGO3D01_WP__FRAME__233
 10
0.0
 20
0.0
 30
0.0
 70
   128
 62
  9
 71
 -118
 72
 -116
 73
 -117
  0
VERTEX
  8
72OFGO3D01_WP__FRAME__233
 10
0.0
 20
0.0
 30
0.0
 70
   128
 62
  9
 71
  114
 72
  109
 73
  116
  0
VERTEX
  8
72OFGO3D01_WP__FRAME__233
 10
0.0
 20
0.0
 30
0.0
 70
   128
 62
  9
 71
 -116
 72
 -109
 73
 -114
  0
VERTEX
  8
72OFGO3D01_WP__FRAME__233
 10
0.0
 20
0.0
 30
0.0
 70
   128
 62
  9
 71
  115
 72
  112
 73
  114
  0
VERTEX
  8
72OFGO3D01_WP__FRAME__233
 10
0.0
 20
0.0
 30
0.0
 70
   128
 62
  9
 71
 -114
 72
 -112
 73
 -115
  0
VERTEX
  8
72OFGO3D01_WP__FRAME__233
 10
0.0
 20
0.0
 30
0.0
 70
   128
 62
  9
 71
  115
 72
  113
 73
  112
  0
VERTEX
  8
72OFGO3D01_WP__FRAME__233
 10
0.0
 20
0.0
 30
0.0
 70
   128
 62
  9
 71
 -112
 72
 -113
 73
 -115
  0
VERTEX
  8
72OFGO3D01_WP__FRAME__233
 10
0.0
 20
0.0
 30
0.0
 70
   128
 62
  9
 71
  111
 72
  110
 73
  112
  0
VERTEX
  8
72OFGO3D01_WP__FRAME__233
 10
0.0
 20
0.0
 30
0.0
 70
   128
 62
  9
 71
 -112
 72
 -110
 73
 -111
  0
VERTEX
  8
72OFGO3D01_WP__FRAME__233
 10
0.0
 20
0.0
 30
0.0
 70
   128
 62
  9
 71
  112
 72
  110
 73
  114
  0
VERTEX
  8
72OFGO3D01_WP__FRAME__233
 10
0.0
 20
0.0
 30
0.0
 70
   128
 62
  9
 71
 -114
 72
 -110
 73
 -112
  0
VERTEX
  8
72OFGO3D01_WP__FRAME__233
 10
0.0
 20
0.0
 30
0.0
 70
   128
 62
  9
 71
  109
 72
  108
 73
  116
  0
VERTEX
  8
72OFGO3D01_WP__FRAME__233
 10
0.0
 20
0.0
 30
0.0
 70
   128
 62
  9
 71
 -116
 72
 -108
 73
 -109
  0
VERTEX
  8
72OFGO3D01_WP__FRAME__233
 10
0.0
 20
0.0
 30
0.0
 70
   128
 62
  9
 71
  107
 72
  126
 73
  108
  0
VERTEX
  8
72OFGO3D01_WP__FRAME__233
 10
0.0
 20
0.0
 30
0.0
 70
   128
 62
  9
 71
 -108
 72
 -126
 73
 -107
  0
VERTEX
  8
72OFGO3D01_WP__FRAME__233
 10
0.0
 20
0.0
 30
0.0
 70
   128
 62
  9
 71
  127
 72
  107
 73
  104
  0
VERTEX
  8
72OFGO3D01_WP__FRAME__233
 10
0.0
 20
0.0
 30
0.0
 70
   128
 62
  9
 71
 -104
 72
 -107
 73
 -127
  0
VERTEX
  8
72OFGO3D01_WP__FRAME__233
 10
0.0
 20
0.0
 30
0.0
 70
   128
 62
  9
 71
  127
 72
  104
 73
  103
  0
VERTEX
  8
72OFGO3D01_WP__FRAME__233
 10
0.0
 20
0.0
 30
0.0
 70
   128
 62
  9
 71
 -103
 72
 -104
 73
 -127
  0
VERTEX
  8
72OFGO3D01_WP__FRAME__233
 10
0.0
 20
0.0
 30
0.0
 70
   128
 62
  9
 71
  105
 72
  104
 73
  106
  0
VERTEX
  8
72OFGO3D01_WP__FRAME__233
 10
0.0
 20
0.0
 30
0.0
 70
   128
 62
  9
 71
 -106
 72
 -104
 73
 -105
  0
VERTEX
  8
72OFGO3D01_WP__FRAME__233
 10
0.0
 20
0.0
 30
0.0
 70
   128
 62
  9
 71
  84
 72
  100
 73
  103
  0
VERTEX
  8
72OFGO3D01_WP__FRAME__233
 10
0.0
 20
0.0
 30
0.0
 70
   128
 62
  9
 71
 -103
 72
 -100
 73
 -84
  0
VERTEX
  8
72OFGO3D01_WP__FRAME__233
 10
0.0
 20
0.0
 30
0.0
 70
   128
 62
  9
 71
  100
 72
  84
 73
  101
  0
VERTEX
  8
72OFGO3D01_WP__FRAME__233
 10
0.0
 20
0.0
 30
0.0
 70
   128
 62
  9
 71
 -101
 72
 -84
 73
 -100
  0
VERTEX
  8
72OFGO3D01_WP__FRAME__233
 10
0.0
 20
0.0
 30
0.0
 70
   128
 62
  9
 71
  84
 72
  82
 73
  101
  0
VERTEX
  8
72OFGO3D01_WP__FRAME__233
 10
0.0
 20
0.0
 30
0.0
 70
   128
 62
  9
 71
 -101
 72
 -82
 73
 -84
  0
VERTEX
  8
72OFGO3D01_WP__FRAME__233
 10
0.0
 20
0.0
 30
0.0
 70
   128
 62
  9
 71
  82
 72
  83
 73
  101
  0
VERTEX
  8
72OFGO3D01_WP__FRAME__233
 10
0.0
 20
0.0
 30
0.0
 70
   128
 62
  9
 71
 -101
 72
 -83
 73
 -82
  0
VERTEX
  8
72OFGO3D01_WP__FRAME__233
 10
0.0
 20
0.0
 30
0.0
 70
   128
 62
  9
 71
  83
 72
  81
 73
  101
  0
VERTEX
  8
72OFGO3D01_WP__FRAME__233
 10
0.0
 20
0.0
 30
0.0
 70
   128
 62
  9
 71
 -101
 72
 -81
 73
 -83
  0
VERTEX
  8
72OFGO3D01_WP__FRAME__233
 10
0.0
 20
0.0
 30
0.0
 70
   128
 62
  9
 71
  102
 72
  101
 73
  80
  0
VERTEX
  8
72OFGO3D01_WP__FRAME__233
 10
0.0
 20
0.0
 30
0.0
 70
   128
 62
  9
 71
 -80
 72
 -101
 73
 -102
  0
VERTEX
  8
72OFGO3D01_WP__FRAME__233
 10
0.0
 20
0.0
 30
0.0
 70
   128
 62
  9
 71
  100
 72
  98
 73
  103
  0
VERTEX
  8
72OFGO3D01_WP__FRAME__233
 10
0.0
 20
0.0
 30
0.0
 70
   128
 62
  9
 71
 -103
 72
 -98
 73
 -100
  0
VERTEX
  8
72OFGO3D01_WP__FRAME__233
 10
0.0
 20
0.0
 30
0.0
 70
   128
 62
  9
 71
  98
 72
  99
 73
  103
  0
VERTEX
  8
72OFGO3D01_WP__FRAME__233
 10
0.0
 20
0.0
 30
0.0
 70
   128
 62
  9
 71
 -103
 72
 -99
 73
 -98
  0
VERTEX
  8
72OFGO3D01_WP__FRAME__233
 10
0.0
 20
0.0
 30
0.0
 70
   128
 62
  9
 71
  103
 72
  99
 73
  128
  0
VERTEX
  8
72OFGO3D01_WP__FRAME__233
 10
0.0
 20
0.0
 30
0.0
 70
   128
 62
  9
 71
 -128
 72
 -99
 73
 -103
  0
VERTEX
  8
72OFGO3D01_WP__FRAME__233
 10
0.0
 20
0.0
 30
0.0
 70
   128
 62
  9
 71
  96
 72
  95
 73
  97
  0
VERTEX
  8
72OFGO3D01_WP__FRAME__233
 10
0.0
 20
0.0
 30
0.0
 70
   128
 62
  9
 71
 -97
 72
 -95
 73
 -96
  0
VERTEX
  8
72OFGO3D01_WP__FRAME__233
 10
0.0
 20
0.0
 30
0.0
 70
   128
 62
  9
 71
  94
 72
  136
 73
  95
  0
VERTEX
  8
72OFGO3D01_WP__FRAME__233
 10
0.0
 20
0.0
 30
0.0
 70
   128
 62
  9
 71
 -95
 72
 -136
 73
 -94
  0
VERTEX
  8
72OFGO3D01_WP__FRAME__233
 10
0.0
 20
0.0
 30
0.0
 70
   128
 62
  9
 71
  93
 72
  92
 73
  94
  0
VERTEX
  8
72OFGO3D01_WP__FRAME__233
 10
0.0
 20
0.0
 30
0.0
 70
   128
 62
  9
 71
 -94
 72
 -92
 73
 -93
  0
VERTEX
  8
72OFGO3D01_WP__FRAME__233
 10
0.0
 20
0.0
 30
0.0
 70
   128
 62
  9
 71
  91
 72
  90
 73
  92
  0
VERTEX
  8
72OFGO3D01_WP__FRAME__233
 10
0.0
 20
0.0
 30
0.0
 70
   128
 62
  9
 71
 -92
 72
 -90
 73
 -91
  0
VERTEX
  8
72OFGO3D01_WP__FRAME__233
 10
0.0
 20
0.0
 30
0.0
 70
   128
 62
  9
 71
  89
 72
  88
 73
  90
  0
VERTEX
  8
72OFGO3D01_WP__FRAME__233
 10
0.0
 20
0.0
 30
0.0
 70
   128
 62
  9
 71
 -90
 72
 -88
 73
 -89
  0
VERTEX
  8
72OFGO3D01_WP__FRAME__233
 10
0.0
 20
0.0
 30
0.0
 70
   128
 62
  9
 71
  87
 72
  85
 73
  88
  0
VERTEX
  8
72OFGO3D01_WP__FRAME__233
 10
0.0
 20
0.0
 30
0.0
 70
   128
 62
  9
 71
 -88
 72
 -85
 73
 -87
  0
VERTEX
  8
72OFGO3D01_WP__FRAME__233
 10
0.0
 20
0.0
 30
0.0
 70
   128
 62
  9
 71
  86
 72
  148
 73
  85
  0
VERTEX
  8
72OFGO3D01_WP__FRAME__233
 10
0.0
 20
0.0
 30
0.0
 70
   128
 62
  9
 71
 -85
 72
 -148
 73
 -86
  0
VERTEX
  8
72OFGO3D01_WP__FRAME__233
 10
0.0
 20
0.0
 30
0.0
 70
   128
 62
  9
 71
  85
 72
  148
 73
  145
  0
VERTEX
  8
72OFGO3D01_WP__FRAME__233
 10
0.0
 20
0.0
 30
0.0
 70
   128
 62
  9
 71
 -145
 72
 -148
 73
 -85
  0
VERTEX
  8
72OFGO3D01_WP__FRAME__233
 10
0.0
 20
0.0
 30
0.0
 70
   128
 62
  9
 71
  85
 72
  145
 73
  143
  0
VERTEX
  8
72OFGO3D01_WP__FRAME__233
 10
0.0
 20
0.0
 30
0.0
 70
   128
 62
  9
 71
 -143
 72
 -145
 73
 -85
  0
VERTEX
  8
72OFGO3D01_WP__FRAME__233
 10
0.0
 20
0.0
 30
0.0
 70
   128
 62
  9
 71
  85
 72
  143
 73
  88
  0
VERTEX
  8
72OFGO3D01_WP__FRAME__233
 10
0.0
 20
0.0
 30
0.0
 70
   128
 62
  9
 71
 -88
 72
 -143
 73
 -85
  0
VERTEX
  8
72OFGO3D01_WP__FRAME__233
 10
0.0
 20
0.0
 30
0.0
 70
   128
 62
  9
 71
  146
 72
  145
 73
  147
  0
VERTEX
  8
72OFGO3D01_WP__FRAME__233
 10
0.0
 20
0.0
 30
0.0
 70
   128
 62
  9
 71
 -147
 72
 -145
 73
 -146
  0
VERTEX
  8
72OFGO3D01_WP__FRAME__233
 10
0.0
 20
0.0
 30
0.0
 70
   128
 62
  9
 71
  145
 72
  144
 73
  143
  0
VERTEX
  8
72OFGO3D01_WP__FRAME__233
 10
0.0
 20
0.0
 30
0.0
 70
   128
 62
  9
 71
 -143
 72
 -144
 73
 -145
  0
VERTEX
  8
72OFGO3D01_WP__FRAME__233
 10
0.0
 20
0.0
 30
0.0
 70
   128
 62
  9
 71
  142
 72
  141
 73
  143
  0
VERTEX
  8
72OFGO3D01_WP__FRAME__233
 10
0.0
 20
0.0
 30
0.0
 70
   128
 62
  9
 71
 -143
 72
 -141
 73
 -142
  0
VERTEX
  8
72OFGO3D01_WP__FRAME__233
 10
0.0
 20
0.0
 30
0.0
 70
   128
 62
  9
 71
  140
 72
  139
 73
  141
  0
VERTEX
  8
72OFGO3D01_WP__FRAME__233
 10
0.0
 20
0.0
 30
0.0
 70
   128
 62
  9
 71
 -141
 72
 -139
 73
 -140
  0
VERTEX
  8
72OFGO3D01_WP__FRAME__233
 10
0.0
 20
0.0
 30
0.0
 70
   128
 62
  9
 71
  138
 72
  137
 73
  139
  0
VERTEX
  8
72OFGO3D01_WP__FRAME__233
 10
0.0
 20
0.0
 30
0.0
 70
   128
 62
  9
 71
 -139
 72
 -137
 73
 -138
  0
VERTEX
  8
72OFGO3D01_WP__FRAME__233
 10
0.0
 20
0.0
 30
0.0
 70
   128
 62
  9
 71
  136
 72
  94
 73
  137
  0
VERTEX
  8
72OFGO3D01_WP__FRAME__233
 10
0.0
 20
0.0
 30
0.0
 70
   128
 62
  9
 71
 -137
 72
 -94
 73
 -136
  0
VERTEX
  8
72OFGO3D01_WP__FRAME__233
 10
0.0
 20
0.0
 30
0.0
 70
   128
 62
  9
 71
  135
 72
  133
 73
  136
  0
VERTEX
  8
72OFGO3D01_WP__FRAME__233
 10
0.0
 20
0.0
 30
0.0
 70
   128
 62
  9
 71
 -136
 72
 -133
 73
 -135
  0
VERTEX
  8
72OFGO3D01_WP__FRAME__233
 10
0.0
 20
0.0
 30
0.0
 70
   128
 62
  9
 71
  136
 72
  133
 73
  128
  0
VERTEX
  8
72OFGO3D01_WP__FRAME__233
 10
0.0
 20
0.0
 30
0.0
 70
   128
 62
  9
 71
 -128
 72
 -133
 73
 -136
  0
VERTEX
  8
72OFGO3D01_WP__FRAME__233
 10
0.0
 20
0.0
 30
0.0
 70
   128
 62
  9
 71
  136
 72
  128
 73
  95
  0
VERTEX
  8
72OFGO3D01_WP__FRAME__233
 10
0.0
 20
0.0
 30
0.0
 70
   128
 62
  9
 71
 -95
 72
 -128
 73
 -136
  0
VERTEX
  8
72OFGO3D01_WP__FRAME__233
 10
0.0
 20
0.0
 30
0.0
 70
   128
 62
  9
 71
  133
 72
  134
 73
  128
  0
VERTEX
  8
72OFGO3D01_WP__FRAME__233
 10
0.0
 20
0.0
 30
0.0
 70
   128
 62
  9
 71
 -128
 72
 -134
 73
 -133
  0
VERTEX
  8
72OFGO3D01_WP__FRAME__233
 10
0.0
 20
0.0
 30
0.0
 70
   128
 62
  9
 71
  131
 72
  132
 73
  10
  0
VERTEX
  8
72OFGO3D01_WP__FRAME__233
 10
0.0
 20
0.0
 30
0.0
 70
   128
 62
  9
 71
 -10
 72
 -132
 73
 -131
  0
VERTEX
  8
72OFGO3D01_WP__FRAME__233
 10
0.0
 20
0.0
 30
0.0
 70
   128
 62
  9
 71
  132
 72
  130
 73
  10
  0
VERTEX
  8
72OFGO3D01_WP__FRAME__233
 10
0.0
 20
0.0
 30
0.0
 70
   128
 62
  9
 71
 -10
 72
 -130
 73
 -132
  0
VERTEX
  8
72OFGO3D01_WP__FRAME__233
 10
0.0
 20
0.0
 30
0.0
 70
   128
 62
  9
 71
  99
 72
  97
 73
  128
  0
VERTEX
  8
72OFGO3D01_WP__FRAME__233
 10
0.0
 20
0.0
 30
0.0
 70
   128
 62
  9
 71
 -128
 72
 -97
 73
 -99
  0
VERTEX
  8
72OFGO3D01_WP__FRAME__233
 10
0.0
 20
0.0
 30
0.0
 70
   128
 62
  9
 71
  90
 72
  88
 73
  141
  0
VERTEX
  8
72OFGO3D01_WP__FRAME__233
 10
0.0
 20
0.0
 30
0.0
 70
   128
 62
  9
 71
 -141
 72
 -88
 73
 -90
  0
VERTEX
  8
72OFGO3D01_WP__FRAME__233
 10
0.0
 20
0.0
 30
0.0
 70
   128
 62
  9
 71
  90
 72
  141
 73
  139
  0
VERTEX
  8
72OFGO3D01_WP__FRAME__233
 10
0.0
 20
0.0
 30
0.0
 70
   128
 62
  9
 71
 -139
 72
 -141
 73
 -90
  0
VERTEX
  8
72OFGO3D01_WP__FRAME__233
 10
0.0
 20
0.0
 30
0.0
 70
   128
 62
  9
 71
  90
 72
  139
 73
  92
  0
VERTEX
  8
72OFGO3D01_WP__FRAME__233
 10
0.0
 20
0.0
 30
0.0
 70
   128
 62
  9
 71
 -92
 72
 -139
 73
 -90
  0
VERTEX
  8
72OFGO3D01_WP__FRAME__233
 10
0.0
 20
0.0
 30
0.0
 70
   128
 62
  9
 71
  143
 72
  141
 73
  88
  0
VERTEX
  8
72OFGO3D01_WP__FRAME__233
 10
0.0
 20
0.0
 30
0.0
 70
   128
 62
  9
 71
 -88
 72
 -141
 73
 -143
  0
VERTEX
  8
72OFGO3D01_WP__FRAME__233
 10
0.0
 20
0.0
 30
0.0
 70
   128
 62
  9
 71
  139
 72
  137
 73
  92
  0
VERTEX
  8
72OFGO3D01_WP__FRAME__233
 10
0.0
 20
0.0
 30
0.0
 70
   128
 62
  9
 71
 -92
 72
 -137
 73
 -139
  0
VERTEX
  8
72OFGO3D01_WP__FRAME__233
 10
0.0
 20
0.0
 30
0.0
 70
   128
 62
  9
 71
  92
 72
  137
 73
  94
  0
VERTEX
  8
72OFGO3D01_WP__FRAME__233
 10
0.0
 20
0.0
 30
0.0
 70
   128
 62
  9
 71
 -94
 72
 -137
 73
 -92
  0
VERTEX
  8
72OFGO3D01_WP__FRAME__233
 10
0.0
 20
0.0
 30
0.0
 70
   128
 62
  9
 71
  147
 72
  145
 73
  148
  0
VERTEX
  8
72OFGO3D01_WP__FRAME__233
 10
0.0
 20
0.0
 30
0.0
 70
   128
 62
  9
 71
 -148
 72
 -145
 73
 -147
  0
VERTEX
  8
72OFGO3D01_WP__FRAME__233
 10
0.0
 20
0.0
 30
0.0
 70
   128
 62
  9
 71
  116
 72
  108
 73
  121
  0
VERTEX
  8
72OFGO3D01_WP__FRAME__233
 10
0.0
 20
0.0
 30
0.0
 70
   128
 62
  9
 71
 -121
 72
 -108
 73
 -116
  0
VERTEX
  8
72OFGO3D01_WP__FRAME__233
 10
0.0
 20
0.0
 30
0.0
 70
   128
 62
  9
 71
  116
 72
  121
 73
  118
  0
VERTEX
  8
72OFGO3D01_WP__FRAME__233
 10
0.0
 20
0.0
 30
0.0
 70
   128
 62
  9
 71
 -118
 72
 -121
 73
 -116
  0
VERTEX
  8
72OFGO3D01_WP__FRAME__233
 10
0.0
 20
0.0
 30
0.0
 70
   128
 62
  9
 71
  121
 72
  108
 73
  126
  0
VERTEX
  8
72OFGO3D01_WP__FRAME__233
 10
0.0
 20
0.0
 30
0.0
 70
   128
 62
  9
 71
 -126
 72
 -108
 73
 -121
  0
VERTEX
  8
72OFGO3D01_WP__FRAME__233
 10
0.0
 20
0.0
 30
0.0
 70
   128
 62
  9
 71
  128
 72
  97
 73
  95
  0
VERTEX
  8
72OFGO3D01_WP__FRAME__233
 10
0.0
 20
0.0
 30
0.0
 70
   128
 62
  9
 71
 -95
 72
 -97
 73
 -128
  0
VERTEX
  8
72OFGO3D01_WP__FRAME__233
 10
0.0
 20
0.0
 30
0.0
 70
   128
 62
  9
 71
  128
 72
  134
 73
  131
  0
VERTEX
  8
72OFGO3D01_WP__FRAME__233
 10
0.0
 20
0.0
 30
0.0
 70
   128
 62
  9
 71
 -131
 72
 -134
 73
 -128
  0
VERTEX
  8
72OFGO3D01_WP__FRAME__233
 10
0.0
 20
0.0
 30
0.0
 70
   128
 62
  9
 71
  10
 72
  130
 73
  1
  0
VERTEX
  8
72OFGO3D01_WP__FRAME__233
 10
0.0
 20
0.0
 30
0.0
 70
   128
 62
  9
 71
 -1
 72
 -130
 73
 -10
  0
VERTEX
  8
72OFGO3D01_WP__FRAME__233
 10
0.0
 20
0.0
 30
0.0
 70
   128
 62
  9
 71
  106
 72
  104
 73
  107
  0
VERTEX
  8
72OFGO3D01_WP__FRAME__233
 10
0.0
 20
0.0
 30
0.0
 70
   128
 62
  9
 71
 -107
 72
 -104
 73
 -106
  0
VERTEX
  8
72OFGO3D01_WP__FRAME__233
 10
0.0
 20
0.0
 30
0.0
 70
   128
 62
  9
 71
  109
 72
  114
 73
  110
  0
VERTEX
  8
72OFGO3D01_WP__FRAME__233
 10
0.0
 20
0.0
 30
0.0
 70
   128
 62
  9
 71
 -110
 72
 -114
 73
 -109
  0
VERTEX
  8
72OFGO3D01_WP__FRAME__233
 10
0.0
 20
0.0
 30
0.0
 70
   128
 62
  9
 71
  101
 72
  81
 73
  80
  0
VERTEX
  8
72OFGO3D01_WP__FRAME__233
 10
0.0
 20
0.0
 30
0.0
 70
   128
 62
  9
 71
 -80
 72
 -81
 73
 -101
  0
SEQEND
  0
ENDBLK
  8
0
  0
BLOCK
  8
0
  2
OB__000003
 70
    64
 10
0.0
 20
0.0
 30
0.0
  3
OB__000003
  0
INSERT
  8
72OFGO3D01_WP__FRAME__233
  2
OB__000002
 10
0.003
 20
0.0255
 30
1.129
 41
1.394
 42
1
 43
1
  0
ENDBLK
  8
0
  0
BLOCK
  8
0
  2
OB__000004
 70
    64
 10
0.0
 20
0.0
 30
0.0
  3
OB__000004
  0
POLYLINE
  8
72OFGO3D01_WP__CONNECTOR__119
 66
     1
 70
    64
 71
182
 72
712
 10
0.0
 20
0.0
 30
0.0
  0
VERTEX
  8
72OFGO3D01_WP__CONNECTOR__119
 10
-0.02
 20
0
 30
-0.02775
 70
    192
  0
VERTEX
  8
72OFGO3D01_WP__CONNECTOR__119
 10
-0.02
 20
-0.014061
 30
0.012387
 70
    192
  0
VERTEX
  8
72OFGO3D01_WP__CONNECTOR__119
 10
-0.02
 20
0
 30
0.02775
 70
    192
  0
VERTEX
  8
72OFGO3D01_WP__CONNECTOR__119
 10
-0.02
 20
-0.013868
 30
-0.02775
 70
    192
  0
VERTEX
  8
72OFGO3D01_WP__CONNECTOR__119
 10
-0.02
 20
-0.014505
 30
0.011862
 70
    192
  0
VERTEX
  8
72OFGO3D01_WP__CONNECTOR__119
 10
-0.02
 20
-0.013956
 30
-0.027746
 70
    192
  0
VERTEX
  8
72OFGO3D01_WP__CONNECTOR__119
 10
-0.02
 20
-0.014042
 30
-0.027735
 70
    192
  0
VERTEX
  8
72OFGO3D01_WP__CONNECTOR__119
 10
-0.02
 20
-0.014127
 30
-0.027716
 70
    192
  0
VERTEX
  8
72OFGO3D01_WP__CONNECTOR__119
 10
-0.02
 20
-0.053059
 30
-0.017284
 70
    192
  0
VERTEX
  8
72OFGO3D01_WP__CONNECTOR__119
 10
-0.02
 20
-0.040926
 30
-0.003191
 70
    192
  0
VERTEX
  8
72OFGO3D01_WP__CONNECTOR__119
 10
-0.02
 20
-0.053145
 30
-0.017265
 70
    192
  0
VERTEX
  8
72OFGO3D01_WP__CONNECTOR__119
 10
-0.02
 20
-0.041265
 30
-0.00325
 70
    192
  0
VERTEX
  8
72OFGO3D01_WP__CONNECTOR__119
 10
-0.02
 20
-0.053231
 30
-0.017254
 70
    192
  0
VERTEX
  8
72OFGO3D01_WP__CONNECTOR__119
 10
-0.02
 20
-0.053318
 30
-0.01725
 70
    192
  0
VERTEX
  8
72OFGO3D01_WP__CONNECTOR__119
 10
-0.02
 20
-0.07675
 30
-0.00325
 70
    192
  0
VERTEX
  8
72OFGO3D01_WP__CONNECTOR__119
 10
-0.02
 20
-0.069491
 30
-0.017246
 70
    192
  0
VERTEX
  8
72OFGO3D01_WP__CONNECTOR__119
 10
-0.02
 20
-0.069578
 30
-0.017235
 70
    192
  0
VERTEX
  8
72OFGO3D01_WP__CONNECTOR__119
 10
-0.02
 20
-0.069404
 30
-0.01725
 70
    192
  0
VERTEX
  8
72OFGO3D01_WP__CONNECTOR__119
 10
-0.02
 20
-0.069663
 30
-0.017216
 70
    192
  0
VERTEX
  8
72OFGO3D01_WP__CONNECTOR__119
 10
-0.02
 20
-0.076815
 30
-0.0153
 70
    192
  0
VERTEX
  8
72OFGO3D01_WP__CONNECTOR__119
 10
-0.02
 20
-0.077
 30
-0.015058
 70
    192
  0
VERTEX
  8
72OFGO3D01_WP__CONNECTOR__119
 10
-0.02
 20
-0.076911
 30
-0.01525
 70
    192
  0
VERTEX
  8
72OFGO3D01_WP__CONNECTOR__119
 10
-0.02
 20
-0.076977
 30
-0.015164
 70
    192
  0
VERTEX
  8
72OFGO3D01_WP__CONNECTOR__119
 10
-0.02
 20
-0.077
 30
-0.0035
 70
    192
  0
VERTEX
  8
72OFGO3D01_WP__CONNECTOR__119
 10
-0.02
 20
-0.076875
 30
-0.003283
 70
    192
  0
VERTEX
  8
72OFGO3D01_WP__CONNECTOR__119
 10
-0.02
 20
-0.076967
 30
-0.003375
 70
    192
  0
VERTEX
  8
72OFGO3D01_WP__CONNECTOR__119
 10
-0.02
 20
-0.041093
 30
-0.003235
 70
    192
  0
VERTEX
  8
72OFGO3D01_WP__CONNECTOR__119
 10
-0.02
 20
-0.04077
 30
-0.003119
 70
    192
  0
VERTEX
  8
72OFGO3D01_WP__CONNECTOR__119
 10
-0.02
 20
-0.014236
 30
0.012085
 70
    192
  0
VERTEX
  8
72OFGO3D01_WP__CONNECTOR__119
 10
-0.02
 20
-0.014
 30
0.012731
 70
    192
  0
VERTEX
  8
72OFGO3D01_WP__CONNECTOR__119
 10
-0.02
 20
-0.014
 30
0.02305
 70
    192
  0
VERTEX
  8
72OFGO3D01_WP__CONNECTOR__119
 10
-0.02
 20
-0.0208
 30
0.02775
 70
    192
  0
VERTEX
  8
72OFGO3D01_WP__CONNECTOR__119
 10
-0.02
 20
-0.0213
 30
0.023184
 70
    192
  0
VERTEX
  8
72OFGO3D01_WP__CONNECTOR__119
 10
-0.02
 20
-0.021666
 30
0.02355
 70
    192
  0
VERTEX
  8
72OFGO3D01_WP__CONNECTOR__119
 10
-0.02
 20
-0.0208
 30
0.02305
 70
    192
  0
VERTEX
  8
72OFGO3D01_WP__CONNECTOR__119
 10
-0.02
 20
-0.0218
 30
0.02405
 70
    192
  0
VERTEX
  8
72OFGO3D01_WP__CONNECTOR__119
 10
-0.02
 20
-0.0218
 30
0.02675
 70
    192
  0
VERTEX
  8
72OFGO3D01_WP__CONNECTOR__119
 10
-0.02
 20
-0.0213
 30
0.027616
 70
    192
  0
VERTEX
  8
72OFGO3D01_WP__CONNECTOR__119
 10
-0.02
 20
-0.021666
 30
0.02725
 70
    192
  0
VERTEX
  8
72OFGO3D01_WP__CONNECTOR__119
 10
0.02
 20
0
 30
-0.02775
 70
    192
  0
VERTEX
  8
72OFGO3D01_WP__CONNECTOR__119
 10
0.02
 20
-0.013868
 30
-0.02775
 70
    192
  0
VERTEX
  8
72OFGO3D01_WP__CONNECTOR__119
 10
-0.002598
 20
0
 30
0.0015
 70
    192
  0
VERTEX
  8
72OFGO3D01_WP__CONNECTOR__119
 10
-0.003
 20
-0.02151
 30
0
 70
    192
  0
VERTEX
  8
72OFGO3D01_WP__CONNECTOR__119
 10
-0.003
 20
0
 30
0
 70
    192
  0
VERTEX
  8
72OFGO3D01_WP__CONNECTOR__119
 10
-0.002598
 20
-0.02151
 30
0.0015
 70
    192
  0
VERTEX
  8
72OFGO3D01_WP__CONNECTOR__119
 10
0
 20
0
 30
0.003
 70
    192
  0
VERTEX
  8
72OFGO3D01_WP__CONNECTOR__119
 10
0
 20
-0.02151
 30
0.003
 70
    192
  0
VERTEX
  8
72OFGO3D01_WP__CONNECTOR__119
 10
-0.0015
 20
0
 30
0.002598
 70
    192
  0
VERTEX
  8
72OFGO3D01_WP__CONNECTOR__119
 10
0.0015
 20
-0.02151
 30
0.002598
 70
    192
  0
VERTEX
  8
72OFGO3D01_WP__CONNECTOR__119
 10
0.002598
 20
0
 30
0.0015
 70
    192
  0
VERTEX
  8
72OFGO3D01_WP__CONNECTOR__119
 10
0.002598
 20
-0.02151
 30
0.0015
 70
    192
  0
VERTEX
  8
72OFGO3D01_WP__CONNECTOR__119
 10
0.0015
 20
0
 30
0.002598
 70
    192
  0
VERTEX
  8
72OFGO3D01_WP__CONNECTOR__119
 10
0.003
 20
-0.02151
 30
0
 70
    192
  0
VERTEX
  8
72OFGO3D01_WP__CONNECTOR__119
 10
0.002598
 20
0
 30
-0.0015
 70
    192
  0
VERTEX
  8
72OFGO3D01_WP__CONNECTOR__119
 10
0.002598
 20
-0.02151
 30
-0.0015
 70
    192
  0
VERTEX
  8
72OFGO3D01_WP__CONNECTOR__119
 10
0.003
 20
0
 30
0
 70
    192
  0
VERTEX
  8
72OFGO3D01_WP__CONNECTOR__119
 10
0.0015
 20
-0.02151
 30
-0.002598
 70
    192
  0
VERTEX
  8
72OFGO3D01_WP__CONNECTOR__119
 10
0.0015
 20
0
 30
-0.002598
 70
    192
  0
VERTEX
  8
72OFGO3D01_WP__CONNECTOR__119
 10
-0.0015
 20
0
 30
-0.002598
 70
    192
  0
VERTEX
  8
72OFGO3D01_WP__CONNECTOR__119
 10
0
 20
-0.02151
 30
-0.003
 70
    192
  0
VERTEX
  8
72OFGO3D01_WP__CONNECTOR__119
 10
0
 20
0
 30
-0.003
 70
    192
  0
VERTEX
  8
72OFGO3D01_WP__CONNECTOR__119
 10
-0.0015
 20
-0.02151
 30
-0.002598
 70
    192
  0
VERTEX
  8
72OFGO3D01_WP__CONNECTOR__119
 10
-0.002598
 20
-0.02151
 30
-0.0015
 70
    192
  0
VERTEX
  8
72OFGO3D01_WP__CONNECTOR__119
 10
-0.002598
 20
0
 30
-0.0015
 70
    192
  0
VERTEX
  8
72OFGO3D01_WP__CONNECTOR__119
 10
-0.0015
 20
-0.02151
 30
0.002598
 70
    192
  0
VERTEX
  8
72OFGO3D01_WP__CONNECTOR__119
 10
0.02
 20
-0.013956
 30
-0.027746
 70
    192
  0
VERTEX
  8
72OFGO3D01_WP__CONNECTOR__119
 10
0.02
 20
-0.014127
 30
-0.027716
 70
    192
  0
VERTEX
  8
72OFGO3D01_WP__CONNECTOR__119
 10
0.02
 20
-0.014042
 30
-0.027735
 70
    192
  0
VERTEX
  8
72OFGO3D01_WP__CONNECTOR__119
 10
0.02
 20
-0.053059
 30
-0.017284
 70
    192
  0
VERTEX
  8
72OFGO3D01_WP__CONNECTOR__119
 10
0.02
 20
-0.053145
 30
-0.017265
 70
    192
  0
VERTEX
  8
72OFGO3D01_WP__CONNECTOR__119
 10
0.02
 20
-0.053318
 30
-0.01725
 70
    192
  0
VERTEX
  8
72OFGO3D01_WP__CONNECTOR__119
 10
0.02
 20
-0.053231
 30
-0.017254
 70
    192
  0
VERTEX
  8
72OFGO3D01_WP__CONNECTOR__119
 10
0.02
 20
-0.069404
 30
-0.01725
 70
    192
  0
VERTEX
  8
72OFGO3D01_WP__CONNECTOR__119
 10
0.02
 20
-0.069491
 30
-0.017246
 70
    192
  0
VERTEX
  8
72OFGO3D01_WP__CONNECTOR__119
 10
0.02
 20
-0.069663
 30
-0.017216
 70
    192
  0
VERTEX
  8
72OFGO3D01_WP__CONNECTOR__119
 10
0.02
 20
-0.069578
 30
-0.017235
 70
    192
  0
VERTEX
  8
72OFGO3D01_WP__CONNECTOR__119
 10
0.02
 20
-0.076815
 30
-0.0153
 70
    192
  0
VERTEX
  8
72OFGO3D01_WP__CONNECTOR__119
 10
0.02
 20
-0.076911
 30
-0.01525
 70
    192
  0
VERTEX
  8
72OFGO3D01_WP__CONNECTOR__119
 10
0.02
 20
-0.077
 30
-0.015058
 70
    192
  0
VERTEX
  8
72OFGO3D01_WP__CONNECTOR__119
 10
0.02
 20
-0.076977
 30
-0.015164
 70
    192
  0
VERTEX
  8
72OFGO3D01_WP__CONNECTOR__119
 10
0.02
 20
-0.077
 30
-0.0035
 70
    192
  0
VERTEX
  8
72OFGO3D01_WP__CONNECTOR__119
 10
0.02
 20
-0.076967
 30
-0.003375
 70
    192
  0
VERTEX
  8
72OFGO3D01_WP__CONNECTOR__119
 10
0.02
 20
-0.07675
 30
-0.00325
 70
    192
  0
VERTEX
  8
72OFGO3D01_WP__CONNECTOR__119
 10
0.02
 20
-0.076875
 30
-0.003283
 70
    192
  0
VERTEX
  8
72OFGO3D01_WP__CONNECTOR__119
 10
0.02
 20
-0.041265
 30
-0.00325
 70
    192
  0
VERTEX
  8
72OFGO3D01_WP__CONNECTOR__119
 10
0.02
 20
-0.041093
 30
-0.003235
 70
    192
  0
VERTEX
  8
72OFGO3D01_WP__CONNECTOR__119
 10
0.02
 20
-0.04077
 30
-0.003119
 70
    192
  0
VERTEX
  8
72OFGO3D01_WP__CONNECTOR__119
 10
0.02
 20
-0.040926
 30
-0.003191
 70
    192
  0
VERTEX
  8
72OFGO3D01_WP__CONNECTOR__119
 10
0.02
 20
-0.014505
 30
0.011862
 70
    192
  0
VERTEX
  8
72OFGO3D01_WP__CONNECTOR__119
 10
0.02
 20
-0.014236
 30
0.012085
 70
    192
  0
VERTEX
  8
72OFGO3D01_WP__CONNECTOR__119
 10
0.02
 20
-0.014
 30
0.012731
 70
    192
  0
VERTEX
  8
72OFGO3D01_WP__CONNECTOR__119
 10
0.02
 20
-0.014061
 30
0.012387
 70
    192
  0
VERTEX
  8
72OFGO3D01_WP__CONNECTOR__119
 10
0.02
 20
-0.014
 30
0.02305
 70
    192
  0
VERTEX
  8
72OFGO3D01_WP__CONNECTOR__119
 10
0.02
 20
-0.0208
 30
0.02305
 70
    192
  0
VERTEX
  8
72OFGO3D01_WP__CONNECTOR__119
 10
0.02
 20
-0.0213
 30
0.023184
 70
    192
  0
VERTEX
  8
72OFGO3D01_WP__CONNECTOR__119
 10
0.02
 20
-0.0218
 30
0.02405
 70
    192
  0
VERTEX
  8
72OFGO3D01_WP__CONNECTOR__119
 10
0.02
 20
-0.021666
 30
0.02355
 70
    192
  0
VERTEX
  8
72OFGO3D01_WP__CONNECTOR__119
 10
0.02
 20
-0.0218
 30
0.02675
 70
    192
  0
VERTEX
  8
72OFGO3D01_WP__CONNECTOR__119
 10
0.02
 20
-0.021666
 30
0.02725
 70
    192
  0
VERTEX
  8
72OFGO3D01_WP__CONNECTOR__119
 10
0.02
 20
-0.0208
 30
0.02775
 70
    192
  0
VERTEX
  8
72OFGO3D01_WP__CONNECTOR__119
 10
0.02
 20
-0.0213
 30
0.027616
 70
    192
  0
VERTEX
  8
72OFGO3D01_WP__CONNECTOR__119
 10
0.02
 20
0
 30
0.02775
 70
    192
  0
VERTEX
  8
72OFGO3D01_WP__CONNECTOR__119
 10
0.02
 20
-0.069909
 30
-0.02195
 70
    192
  0
VERTEX
  8
72OFGO3D01_WP__CONNECTOR__119
 10
0.02
 20
-0.070043
 30
-0.02245
 70
    192
  0
VERTEX
  8
72OFGO3D01_WP__CONNECTOR__119
 10
-0.02
 20
-0.069909
 30
-0.02195
 70
    192
  0
VERTEX
  8
72OFGO3D01_WP__CONNECTOR__119
 10
-0.02
 20
-0.070043
 30
-0.02245
 70
    192
  0
VERTEX
  8
72OFGO3D01_WP__CONNECTOR__119
 10
0.02
 20
-0.070909
 30
-0.02295
 70
    192
  0
VERTEX
  8
72OFGO3D01_WP__CONNECTOR__119
 10
-0.02
 20
-0.070909
 30
-0.02295
 70
    192
  0
VERTEX
  8
72OFGO3D01_WP__CONNECTOR__119
 10
0.02
 20
-0.070409
 30
-0.022816
 70
    192
  0
VERTEX
  8
72OFGO3D01_WP__CONNECTOR__119
 10
-0.02
 20
-0.070409
 30
-0.022816
 70
    192
  0
VERTEX
  8
72OFGO3D01_WP__CONNECTOR__119
 10
0.02
 20
-0.082777
 30
-0.02295
 70
    192
  0
VERTEX
  8
72OFGO3D01_WP__CONNECTOR__119
 10
-0.02
 20
-0.082777
 30
-0.02295
 70
    192
  0
VERTEX
  8
72OFGO3D01_WP__CONNECTOR__119
 10
0.02
 20
-0.082865
 30
-0.022946
 70
    192
  0
VERTEX
  8
72OFGO3D01_WP__CONNECTOR__119
 10
-0.02
 20
-0.082865
 30
-0.022946
 70
    192
  0
VERTEX
  8
72OFGO3D01_WP__CONNECTOR__119
 10
0.02
 20
-0.083036
 30
-0.022916
 70
    192
  0
VERTEX
  8
72OFGO3D01_WP__CONNECTOR__119
 10
-0.02
 20
-0.083036
 30
-0.022916
 70
    192
  0
VERTEX
  8
72OFGO3D01_WP__CONNECTOR__119
 10
0.02
 20
-0.082951
 30
-0.022935
 70
    192
  0
VERTEX
  8
72OFGO3D01_WP__CONNECTOR__119
 10
-0.02
 20
-0.082951
 30
-0.022935
 70
    192
  0
VERTEX
  8
72OFGO3D01_WP__CONNECTOR__119
 10
0.02
 20
-0.090168
 30
-0.021005
 70
    192
  0
VERTEX
  8
72OFGO3D01_WP__CONNECTOR__119
 10
-0.02
 20
-0.090168
 30
-0.021005
 70
    192
  0
VERTEX
  8
72OFGO3D01_WP__CONNECTOR__119
 10
0.02
 20
-0.090552
 30
-0.020805
 70
    192
  0
VERTEX
  8
72OFGO3D01_WP__CONNECTOR__119
 10
-0.02
 20
-0.090552
 30
-0.020805
 70
    192
  0
VERTEX
  8
72OFGO3D01_WP__CONNECTOR__119
 10
0.02
 20
-0.090909
 30
-0.020039
 70
    192
  0
VERTEX
  8
72OFGO3D01_WP__CONNECTOR__119
 10
-0.02
 20
-0.090909
 30
-0.020039
 70
    192
  0
VERTEX
  8
72OFGO3D01_WP__CONNECTOR__119
 10
0.02
 20
-0.090815
 30
-0.020462
 70
    192
  0
VERTEX
  8
72OFGO3D01_WP__CONNECTOR__119
 10
-0.02
 20
-0.090815
 30
-0.020462
 70
    192
  0
VERTEX
  8
72OFGO3D01_WP__CONNECTOR__119
 10
0.02
 20
-0.090909
 30
0.008139
 70
    192
  0
VERTEX
  8
72OFGO3D01_WP__CONNECTOR__119
 10
-0.02
 20
-0.090909
 30
0.008139
 70
    192
  0
VERTEX
  8
72OFGO3D01_WP__CONNECTOR__119
 10
0.02
 20
-0.090815
 30
0.008562
 70
    192
  0
VERTEX
  8
72OFGO3D01_WP__CONNECTOR__119
 10
-0.02
 20
-0.090815
 30
0.008562
 70
    192
  0
VERTEX
  8
72OFGO3D01_WP__CONNECTOR__119
 10
0.02
 20
-0.090168
 30
0.009105
 70
    192
  0
VERTEX
  8
72OFGO3D01_WP__CONNECTOR__119
 10
-0.02
 20
-0.090168
 30
0.009105
 70
    192
  0
VERTEX
  8
72OFGO3D01_WP__CONNECTOR__119
 10
0.02
 20
-0.090552
 30
0.008905
 70
    192
  0
VERTEX
  8
72OFGO3D01_WP__CONNECTOR__119
 10
-0.02
 20
-0.090552
 30
0.008905
 70
    192
  0
VERTEX
  8
72OFGO3D01_WP__CONNECTOR__119
 10
0.02
 20
-0.083036
 30
0.011016
 70
    192
  0
VERTEX
  8
72OFGO3D01_WP__CONNECTOR__119
 10
-0.02
 20
-0.083036
 30
0.011016
 70
    192
  0
VERTEX
  8
72OFGO3D01_WP__CONNECTOR__119
 10
0.02
 20
-0.082951
 30
0.011035
 70
    192
  0
VERTEX
  8
72OFGO3D01_WP__CONNECTOR__119
 10
-0.02
 20
-0.082951
 30
0.011035
 70
    192
  0
VERTEX
  8
72OFGO3D01_WP__CONNECTOR__119
 10
0.02
 20
-0.082777
 30
0.01105
 70
    192
  0
VERTEX
  8
72OFGO3D01_WP__CONNECTOR__119
 10
-0.02
 20
-0.082777
 30
0.01105
 70
    192
  0
VERTEX
  8
72OFGO3D01_WP__CONNECTOR__119
 10
0.02
 20
-0.082865
 30
0.011046
 70
    192
  0
VERTEX
  8
72OFGO3D01_WP__CONNECTOR__119
 10
-0.02
 20
-0.082865
 30
0.011046
 70
    192
  0
VERTEX
  8
72OFGO3D01_WP__CONNECTOR__119
 10
0.02
 20
-0.073909
 30
0.01105
 70
    192
  0
VERTEX
  8
72OFGO3D01_WP__CONNECTOR__119
 10
-0.02
 20
-0.073909
 30
0.01105
 70
    192
  0
VERTEX
  8
72OFGO3D01_WP__CONNECTOR__119
 10
0.02
 20
-0.073409
 30
0.010916
 70
    192
  0
VERTEX
  8
72OFGO3D01_WP__CONNECTOR__119
 10
-0.02
 20
-0.073409
 30
0.010916
 70
    192
  0
VERTEX
  8
72OFGO3D01_WP__CONNECTOR__119
 10
0.02
 20
-0.072909
 30
0.01005
 70
    192
  0
VERTEX
  8
72OFGO3D01_WP__CONNECTOR__119
 10
-0.02
 20
-0.072909
 30
0.01005
 70
    192
  0
VERTEX
  8
72OFGO3D01_WP__CONNECTOR__119
 10
0.02
 20
-0.073043
 30
0.01055
 70
    192
  0
VERTEX
  8
72OFGO3D01_WP__CONNECTOR__119
 10
-0.02
 20
-0.073043
 30
0.01055
 70
    192
  0
VERTEX
  8
72OFGO3D01_WP__CONNECTOR__119
 10
0.02
 20
-0.072909
 30
0.00155
 70
    192
  0
VERTEX
  8
72OFGO3D01_WP__CONNECTOR__119
 10
-0.02
 20
-0.072909
 30
0.00155
 70
    192
  0
VERTEX
  8
72OFGO3D01_WP__CONNECTOR__119
 10
0.02
 20
-0.072976
 30
0.0013
 70
    192
  0
VERTEX
  8
72OFGO3D01_WP__CONNECTOR__119
 10
-0.02
 20
-0.072976
 30
0.0013
 70
    192
  0
VERTEX
  8
72OFGO3D01_WP__CONNECTOR__119
 10
0.02
 20
-0.073409
 30
0.00105
 70
    192
  0
VERTEX
  8
72OFGO3D01_WP__CONNECTOR__119
 10
-0.02
 20
-0.073409
 30
0.00105
 70
    192
  0
VERTEX
  8
72OFGO3D01_WP__CONNECTOR__119
 10
0.02
 20
-0.073159
 30
0.001117
 70
    192
  0
VERTEX
  8
72OFGO3D01_WP__CONNECTOR__119
 10
-0.02
 20
-0.073159
 30
0.001117
 70
    192
  0
VERTEX
  8
72OFGO3D01_WP__CONNECTOR__119
 10
0.02
 20
-0.080409
 30
0.00105
 70
    192
  0
VERTEX
  8
72OFGO3D01_WP__CONNECTOR__119
 10
-0.02
 20
-0.080409
 30
0.00105
 70
    192
  0
VERTEX
  8
72OFGO3D01_WP__CONNECTOR__119
 10
0.02
 20
-0.080659
 30
0.000983
 70
    192
  0
VERTEX
  8
72OFGO3D01_WP__CONNECTOR__119
 10
-0.02
 20
-0.080659
 30
0.000983
 70
    192
  0
VERTEX
  8
72OFGO3D01_WP__CONNECTOR__119
 10
0.02
 20
-0.080909
 30
0.00055
 70
    192
  0
VERTEX
  8
72OFGO3D01_WP__CONNECTOR__119
 10
-0.02
 20
-0.080909
 30
0.00055
 70
    192
  0
VERTEX
  8
72OFGO3D01_WP__CONNECTOR__119
 10
0.02
 20
-0.080842
 30
0.0008
 70
    192
  0
VERTEX
  8
72OFGO3D01_WP__CONNECTOR__119
 10
-0.02
 20
-0.080842
 30
0.0008
 70
    192
  0
VERTEX
  8
72OFGO3D01_WP__CONNECTOR__119
 10
0.02
 20
-0.080909
 30
-0.013819
 70
    192
  0
VERTEX
  8
72OFGO3D01_WP__CONNECTOR__119
 10
-0.02
 20
-0.080909
 30
-0.013819
 70
    192
  0
VERTEX
  8
72OFGO3D01_WP__CONNECTOR__119
 10
0.02
 20
-0.080862
 30
-0.01403
 70
    192
  0
VERTEX
  8
72OFGO3D01_WP__CONNECTOR__119
 10
-0.02
 20
-0.080862
 30
-0.01403
 70
    192
  0
VERTEX
  8
72OFGO3D01_WP__CONNECTOR__119
 10
0.02
 20
-0.080539
 30
-0.014302
 70
    192
  0
VERTEX
  8
72OFGO3D01_WP__CONNECTOR__119
 10
-0.02
 20
-0.080539
 30
-0.014302
 70
    192
  0
VERTEX
  8
72OFGO3D01_WP__CONNECTOR__119
 10
0.02
 20
-0.08073
 30
-0.014202
 70
    192
  0
VERTEX
  8
72OFGO3D01_WP__CONNECTOR__119
 10
-0.02
 20
-0.08073
 30
-0.014202
 70
    192
  0
VERTEX
  8
72OFGO3D01_WP__CONNECTOR__119
 10
0.02
 20
-0.07028
 30
-0.017051
 70
    192
  0
VERTEX
  8
72OFGO3D01_WP__CONNECTOR__119
 10
-0.02
 20
-0.07028
 30
-0.017051
 70
    192
  0
VERTEX
  8
72OFGO3D01_WP__CONNECTOR__119
 10
0.02
 20
-0.070088
 30
-0.017151
 70
    192
  0
VERTEX
  8
72OFGO3D01_WP__CONNECTOR__119
 10
-0.02
 20
-0.070088
 30
-0.017151
 70
    192
  0
VERTEX
  8
72OFGO3D01_WP__CONNECTOR__119
 10
0.02
 20
-0.069909
 30
-0.017534
 70
    192
  0
VERTEX
  8
72OFGO3D01_WP__CONNECTOR__119
 10
-0.02
 20
-0.069909
 30
-0.017534
 70
    192
  0
VERTEX
  8
72OFGO3D01_WP__CONNECTOR__119
 10
0.02
 20
-0.069956
 30
-0.017322
 70
    192
  0
VERTEX
  8
72OFGO3D01_WP__CONNECTOR__119
 10
-0.02
 20
-0.069956
 30
-0.017322
 70
    192
  0
VERTEX
  8
72OFGO3D01_WP__CONNECTOR__119
 10
0.0
 20
0.0
 30
0.0
 70
   128
 62
  9
 71
  1
 72
  2
 73
  3
  0
VERTEX
  8
72OFGO3D01_WP__CONNECTOR__119
 10
0.0
 20
0.0
 30
0.0
 70
   128
 62
  9
 71
 -3
 72
 -2
 73
 -1
  0
VERTEX
  8
72OFGO3D01_WP__CONNECTOR__119
 10
0.0
 20
0.0
 30
0.0
 70
   128
 62
  9
 71
  4
 72
  5
 73
  1
  0
VERTEX
  8
72OFGO3D01_WP__CONNECTOR__119
 10
0.0
 20
0.0
 30
0.0
 70
   128
 62
  9
 71
 -1
 72
 -5
 73
 -4
  0
VERTEX
  8
72OFGO3D01_WP__CONNECTOR__119
 10
0.0
 20
0.0
 30
0.0
 70
   128
 62
  9
 71
  6
 72
  7
 73
  4
  0
VERTEX
  8
72OFGO3D01_WP__CONNECTOR__119
 10
0.0
 20
0.0
 30
0.0
 70
   128
 62
  9
 71
 -4
 72
 -7
 73
 -6
  0
VERTEX
  8
72OFGO3D01_WP__CONNECTOR__119
 10
0.0
 20
0.0
 30
0.0
 70
   128
 62
  9
 71
  7
 72
  8
 73
  4
  0
VERTEX
  8
72OFGO3D01_WP__CONNECTOR__119
 10
0.0
 20
0.0
 30
0.0
 70
   128
 62
  9
 71
 -4
 72
 -8
 73
 -7
  0
VERTEX
  8
72OFGO3D01_WP__CONNECTOR__119
 10
0.0
 20
0.0
 30
0.0
 70
   128
 62
  9
 71
  9
 72
  10
 73
  8
  0
VERTEX
  8
72OFGO3D01_WP__CONNECTOR__119
 10
0.0
 20
0.0
 30
0.0
 70
   128
 62
  9
 71
 -8
 72
 -10
 73
 -9
  0
VERTEX
  8
72OFGO3D01_WP__CONNECTOR__119
 10
0.0
 20
0.0
 30
0.0
 70
   128
 62
  9
 71
  11
 72
  12
 73
  9
  0
VERTEX
  8
72OFGO3D01_WP__CONNECTOR__119
 10
0.0
 20
0.0
 30
0.0
 70
   128
 62
  9
 71
 -9
 72
 -12
 73
 -11
  0
VERTEX
  8
72OFGO3D01_WP__CONNECTOR__119
 10
0.0
 20
0.0
 30
0.0
 70
   128
 62
  9
 71
  11
 72
  13
 73
  12
  0
VERTEX
  8
72OFGO3D01_WP__CONNECTOR__119
 10
0.0
 20
0.0
 30
0.0
 70
   128
 62
  9
 71
 -12
 72
 -13
 73
 -11
  0
VERTEX
  8
72OFGO3D01_WP__CONNECTOR__119
 10
0.0
 20
0.0
 30
0.0
 70
   128
 62
  9
 71
  13
 72
  14
 73
  12
  0
VERTEX
  8
72OFGO3D01_WP__CONNECTOR__119
 10
0.0
 20
0.0
 30
0.0
 70
   128
 62
  9
 71
 -12
 72
 -14
 73
 -13
  0
VERTEX
  8
72OFGO3D01_WP__CONNECTOR__119
 10
0.0
 20
0.0
 30
0.0
 70
   128
 62
  9
 71
  12
 72
  14
 73
  15
  0
VERTEX
  8
72OFGO3D01_WP__CONNECTOR__119
 10
0.0
 20
0.0
 30
0.0
 70
   128
 62
  9
 71
 -15
 72
 -14
 73
 -12
  0
VERTEX
  8
72OFGO3D01_WP__CONNECTOR__119
 10
0.0
 20
0.0
 30
0.0
 70
   128
 62
  9
 71
  16
 72
  17
 73
  18
  0
VERTEX
  8
72OFGO3D01_WP__CONNECTOR__119
 10
0.0
 20
0.0
 30
0.0
 70
   128
 62
  9
 71
 -18
 72
 -17
 73
 -16
  0
VERTEX
  8
72OFGO3D01_WP__CONNECTOR__119
 10
0.0
 20
0.0
 30
0.0
 70
   128
 62
  9
 71
  17
 72
  19
 73
  18
  0
VERTEX
  8
72OFGO3D01_WP__CONNECTOR__119
 10
0.0
 20
0.0
 30
0.0
 70
   128
 62
  9
 71
 -18
 72
 -19
 73
 -17
  0
VERTEX
  8
72OFGO3D01_WP__CONNECTOR__119
 10
0.0
 20
0.0
 30
0.0
 70
   128
 62
  9
 71
  20
 72
  21
 73
  19
  0
VERTEX
  8
72OFGO3D01_WP__CONNECTOR__119
 10
0.0
 20
0.0
 30
0.0
 70
   128
 62
  9
 71
 -19
 72
 -21
 73
 -20
  0
VERTEX
  8
72OFGO3D01_WP__CONNECTOR__119
 10
0.0
 20
0.0
 30
0.0
 70
   128
 62
  9
 71
  22
 72
  23
 73
  20
  0
VERTEX
  8
72OFGO3D01_WP__CONNECTOR__119
 10
0.0
 20
0.0
 30
0.0
 70
   128
 62
  9
 71
 -20
 72
 -23
 73
 -22
  0
VERTEX
  8
72OFGO3D01_WP__CONNECTOR__119
 10
0.0
 20
0.0
 30
0.0
 70
   128
 62
  9
 71
  23
 72
  21
 73
  20
  0
VERTEX
  8
72OFGO3D01_WP__CONNECTOR__119
 10
0.0
 20
0.0
 30
0.0
 70
   128
 62
  9
 71
 -20
 72
 -21
 73
 -23
  0
VERTEX
  8
72OFGO3D01_WP__CONNECTOR__119
 10
0.0
 20
0.0
 30
0.0
 70
   128
 62
  9
 71
  21
 72
  24
 73
  19
  0
VERTEX
  8
72OFGO3D01_WP__CONNECTOR__119
 10
0.0
 20
0.0
 30
0.0
 70
   128
 62
  9
 71
 -19
 72
 -24
 73
 -21
  0
VERTEX
  8
72OFGO3D01_WP__CONNECTOR__119
 10
0.0
 20
0.0
 30
0.0
 70
   128
 62
  9
 71
  19
 72
  24
 73
  15
  0
VERTEX
  8
72OFGO3D01_WP__CONNECTOR__119
 10
0.0
 20
0.0
 30
0.0
 70
   128
 62
  9
 71
 -15
 72
 -24
 73
 -19
  0
VERTEX
  8
72OFGO3D01_WP__CONNECTOR__119
 10
0.0
 20
0.0
 30
0.0
 70
   128
 62
  9
 71
  19
 72
  15
 73
  18
  0
VERTEX
  8
72OFGO3D01_WP__CONNECTOR__119
 10
0.0
 20
0.0
 30
0.0
 70
   128
 62
  9
 71
 -18
 72
 -15
 73
 -19
  0
VERTEX
  8
72OFGO3D01_WP__CONNECTOR__119
 10
0.0
 20
0.0
 30
0.0
 70
   128
 62
  9
 71
  25
 72
  15
 73
  26
  0
VERTEX
  8
72OFGO3D01_WP__CONNECTOR__119
 10
0.0
 20
0.0
 30
0.0
 70
   128
 62
  9
 71
 -26
 72
 -15
 73
 -25
  0
VERTEX
  8
72OFGO3D01_WP__CONNECTOR__119
 10
0.0
 20
0.0
 30
0.0
 70
   128
 62
  9
 71
  18
 72
  15
 73
  14
  0
VERTEX
  8
72OFGO3D01_WP__CONNECTOR__119
 10
0.0
 20
0.0
 30
0.0
 70
   128
 62
  9
 71
 -14
 72
 -15
 73
 -18
  0
VERTEX
  8
72OFGO3D01_WP__CONNECTOR__119
 10
0.0
 20
0.0
 30
0.0
 70
   128
 62
  9
 71
  12
 72
  27
 73
  9
  0
VERTEX
  8
72OFGO3D01_WP__CONNECTOR__119
 10
0.0
 20
0.0
 30
0.0
 70
   128
 62
  9
 71
 -9
 72
 -27
 73
 -12
  0
VERTEX
  8
72OFGO3D01_WP__CONNECTOR__119
 10
0.0
 20
0.0
 30
0.0
 70
   128
 62
  9
 71
  27
 72
  10
 73
  9
  0
VERTEX
  8
72OFGO3D01_WP__CONNECTOR__119
 10
0.0
 20
0.0
 30
0.0
 70
   128
 62
  9
 71
 -9
 72
 -10
 73
 -27
  0
VERTEX
  8
72OFGO3D01_WP__CONNECTOR__119
 10
0.0
 20
0.0
 30
0.0
 70
   128
 62
  9
 71
  10
 72
  28
 73
  8
  0
VERTEX
  8
72OFGO3D01_WP__CONNECTOR__119
 10
0.0
 20
0.0
 30
0.0
 70
   128
 62
  9
 71
 -8
 72
 -28
 73
 -10
  0
VERTEX
  8
72OFGO3D01_WP__CONNECTOR__119
 10
0.0
 20
0.0
 30
0.0
 70
   128
 62
  9
 71
  28
 72
  5
 73
  8
  0
VERTEX
  8
72OFGO3D01_WP__CONNECTOR__119
 10
0.0
 20
0.0
 30
0.0
 70
   128
 62
  9
 71
 -8
 72
 -5
 73
 -28
  0
VERTEX
  8
72OFGO3D01_WP__CONNECTOR__119
 10
0.0
 20
0.0
 30
0.0
 70
   128
 62
  9
 71
  5
 72
  29
 73
  1
  0
VERTEX
  8
72OFGO3D01_WP__CONNECTOR__119
 10
0.0
 20
0.0
 30
0.0
 70
   128
 62
  9
 71
 -1
 72
 -29
 73
 -5
  0
VERTEX
  8
72OFGO3D01_WP__CONNECTOR__119
 10
0.0
 20
0.0
 30
0.0
 70
   128
 62
  9
 71
  29
 72
  2
 73
  1
  0
VERTEX
  8
72OFGO3D01_WP__CONNECTOR__119
 10
0.0
 20
0.0
 30
0.0
 70
   128
 62
  9
 71
 -1
 72
 -2
 73
 -29
  0
VERTEX
  8
72OFGO3D01_WP__CONNECTOR__119
 10
0.0
 20
0.0
 30
0.0
 70
   128
 62
  9
 71
  2
 72
  30
 73
  3
  0
VERTEX
  8
72OFGO3D01_WP__CONNECTOR__119
 10
0.0
 20
0.0
 30
0.0
 70
   128
 62
  9
 71
 -3
 72
 -30
 73
 -2
  0
VERTEX
  8
72OFGO3D01_WP__CONNECTOR__119
 10
0.0
 20
0.0
 30
0.0
 70
   128
 62
  9
 71
  30
 72
  31
 73
  3
  0
VERTEX
  8
72OFGO3D01_WP__CONNECTOR__119
 10
0.0
 20
0.0
 30
0.0
 70
   128
 62
  9
 71
 -3
 72
 -31
 73
 -30
  0
VERTEX
  8
72OFGO3D01_WP__CONNECTOR__119
 10
0.0
 20
0.0
 30
0.0
 70
   128
 62
  9
 71
  3
 72
  31
 73
  32
  0
VERTEX
  8
72OFGO3D01_WP__CONNECTOR__119
 10
0.0
 20
0.0
 30
0.0
 70
   128
 62
  9
 71
 -32
 72
 -31
 73
 -3
  0
VERTEX
  8
72OFGO3D01_WP__CONNECTOR__119
 10
0.0
 20
0.0
 30
0.0
 70
   128
 62
  9
 71
  33
 72
  34
 73
  35
  0
VERTEX
  8
72OFGO3D01_WP__CONNECTOR__119
 10
0.0
 20
0.0
 30
0.0
 70
   128
 62
  9
 71
 -35
 72
 -34
 73
 -33
  0
VERTEX
  8
72OFGO3D01_WP__CONNECTOR__119
 10
0.0
 20
0.0
 30
0.0
 70
   128
 62
  9
 71
  34
 72
  36
 73
  35
  0
VERTEX
  8
72OFGO3D01_WP__CONNECTOR__119
 10
0.0
 20
0.0
 30
0.0
 70
   128
 62
  9
 71
 -35
 72
 -36
 73
 -34
  0
VERTEX
  8
72OFGO3D01_WP__CONNECTOR__119
 10
0.0
 20
0.0
 30
0.0
 70
   128
 62
  9
 71
  36
 72
  37
 73
  35
  0
VERTEX
  8
72OFGO3D01_WP__CONNECTOR__119
 10
0.0
 20
0.0
 30
0.0
 70
   128
 62
  9
 71
 -35
 72
 -37
 73
 -36
  0
VERTEX
  8
72OFGO3D01_WP__CONNECTOR__119
 10
0.0
 20
0.0
 30
0.0
 70
   128
 62
  9
 71
  35
 72
  37
 73
  32
  0
VERTEX
  8
72OFGO3D01_WP__CONNECTOR__119
 10
0.0
 20
0.0
 30
0.0
 70
   128
 62
  9
 71
 -32
 72
 -37
 73
 -35
  0
VERTEX
  8
72OFGO3D01_WP__CONNECTOR__119
 10
0.0
 20
0.0
 30
0.0
 70
   128
 62
  9
 71
  35
 72
  32
 73
  31
  0
VERTEX
  8
72OFGO3D01_WP__CONNECTOR__119
 10
0.0
 20
0.0
 30
0.0
 70
   128
 62
  9
 71
 -31
 72
 -32
 73
 -35
  0
VERTEX
  8
72OFGO3D01_WP__CONNECTOR__119
 10
0.0
 20
0.0
 30
0.0
 70
   128
 62
  9
 71
  38
 72
  32
 73
  39
  0
VERTEX
  8
72OFGO3D01_WP__CONNECTOR__119
 10
0.0
 20
0.0
 30
0.0
 70
   128
 62
  9
 71
 -39
 72
 -32
 73
 -38
  0
VERTEX
  8
72OFGO3D01_WP__CONNECTOR__119
 10
0.0
 20
0.0
 30
0.0
 70
   128
 62
  9
 71
  39
 72
  32
 73
  37
  0
VERTEX
  8
72OFGO3D01_WP__CONNECTOR__119
 10
0.0
 20
0.0
 30
0.0
 70
   128
 62
  9
 71
 -37
 72
 -32
 73
 -39
  0
VERTEX
  8
72OFGO3D01_WP__CONNECTOR__119
 10
0.0
 20
0.0
 30
0.0
 70
   128
 62
  9
 71
  15
 72
  24
 73
  26
  0
VERTEX
  8
72OFGO3D01_WP__CONNECTOR__119
 10
0.0
 20
0.0
 30
0.0
 70
   128
 62
  9
 71
 -26
 72
 -24
 73
 -15
  0
VERTEX
  8
72OFGO3D01_WP__CONNECTOR__119
 10
0.0
 20
0.0
 30
0.0
 70
   128
 62
  9
 71
  8
 72
  5
 73
  4
  0
VERTEX
  8
72OFGO3D01_WP__CONNECTOR__119
 10
0.0
 20
0.0
 30
0.0
 70
   128
 62
  9
 71
 -4
 72
 -5
 73
 -8
  0
VERTEX
  8
72OFGO3D01_WP__CONNECTOR__119
 10
0.0
 20
0.0
 30
0.0
 70
   128
 62
  9
 71
  1
 72
  40
 73
  4
  0
VERTEX
  8
72OFGO3D01_WP__CONNECTOR__119
 10
0.0
 20
0.0
 30
0.0
 70
   128
 62
  9
 71
 -4
 72
 -40
 73
 -1
  0
VERTEX
  8
72OFGO3D01_WP__CONNECTOR__119
 10
0.0
 20
0.0
 30
0.0
 70
   128
 62
  9
 71
  40
 72
  41
 73
  4
  0
VERTEX
  8
72OFGO3D01_WP__CONNECTOR__119
 10
0.0
 20
0.0
 30
0.0
 70
   128
 62
  9
 71
 -4
 72
 -41
 73
 -40
  0
VERTEX
  8
72OFGO3D01_WP__CONNECTOR__119
 10
0.0
 20
0.0
 30
0.0
 70
   128
 62
  9
 71
  42
 72
  43
 73
  44
  0
VERTEX
  8
72OFGO3D01_WP__CONNECTOR__119
 10
0.0
 20
0.0
 30
0.0
 70
   128
 62
  9
 71
 -44
 72
 -43
 73
 -42
  0
VERTEX
  8
72OFGO3D01_WP__CONNECTOR__119
 10
0.0
 20
0.0
 30
0.0
 70
   128
 62
  9
 71
  43
 72
  42
 73
  45
  0
VERTEX
  8
72OFGO3D01_WP__CONNECTOR__119
 10
0.0
 20
0.0
 30
0.0
 70
   128
 62
  9
 71
 -45
 72
 -42
 73
 -43
  0
VERTEX
  8
72OFGO3D01_WP__CONNECTOR__119
 10
0.0
 20
0.0
 30
0.0
 70
   128
 62
  9
 71
  46
 72
  47
 73
  48
  0
VERTEX
  8
72OFGO3D01_WP__CONNECTOR__119
 10
0.0
 20
0.0
 30
0.0
 70
   128
 62
  9
 71
 -48
 72
 -47
 73
 -46
  0
VERTEX
  8
72OFGO3D01_WP__CONNECTOR__119
 10
0.0
 20
0.0
 30
0.0
 70
   128
 62
  9
 71
  47
 72
  46
 73
  49
  0
VERTEX
  8
72OFGO3D01_WP__CONNECTOR__119
 10
0.0
 20
0.0
 30
0.0
 70
   128
 62
  9
 71
 -49
 72
 -46
 73
 -47
  0
VERTEX
  8
72OFGO3D01_WP__CONNECTOR__119
 10
0.0
 20
0.0
 30
0.0
 70
   128
 62
  9
 71
  50
 72
  51
 73
  52
  0
VERTEX
  8
72OFGO3D01_WP__CONNECTOR__119
 10
0.0
 20
0.0
 30
0.0
 70
   128
 62
  9
 71
 -52
 72
 -51
 73
 -50
  0
VERTEX
  8
72OFGO3D01_WP__CONNECTOR__119
 10
0.0
 20
0.0
 30
0.0
 70
   128
 62
  9
 71
  51
 72
  50
 73
  53
  0
VERTEX
  8
72OFGO3D01_WP__CONNECTOR__119
 10
0.0
 20
0.0
 30
0.0
 70
   128
 62
  9
 71
 -53
 72
 -50
 73
 -51
  0
VERTEX
  8
72OFGO3D01_WP__CONNECTOR__119
 10
0.0
 20
0.0
 30
0.0
 70
   128
 62
  9
 71
  54
 72
  55
 73
  56
  0
VERTEX
  8
72OFGO3D01_WP__CONNECTOR__119
 10
0.0
 20
0.0
 30
0.0
 70
   128
 62
  9
 71
 -56
 72
 -55
 73
 -54
  0
VERTEX
  8
72OFGO3D01_WP__CONNECTOR__119
 10
0.0
 20
0.0
 30
0.0
 70
   128
 62
  9
 71
  55
 72
  54
 73
  57
  0
VERTEX
  8
72OFGO3D01_WP__CONNECTOR__119
 10
0.0
 20
0.0
 30
0.0
 70
   128
 62
  9
 71
 -57
 72
 -54
 73
 -55
  0
VERTEX
  8
72OFGO3D01_WP__CONNECTOR__119
 10
0.0
 20
0.0
 30
0.0
 70
   128
 62
  9
 71
  54
 72
  58
 73
  57
  0
VERTEX
  8
72OFGO3D01_WP__CONNECTOR__119
 10
0.0
 20
0.0
 30
0.0
 70
   128
 62
  9
 71
 -57
 72
 -58
 73
 -54
  0
VERTEX
  8
72OFGO3D01_WP__CONNECTOR__119
 10
0.0
 20
0.0
 30
0.0
 70
   128
 62
  9
 71
  59
 72
  60
 73
  61
  0
VERTEX
  8
72OFGO3D01_WP__CONNECTOR__119
 10
0.0
 20
0.0
 30
0.0
 70
   128
 62
  9
 71
 -61
 72
 -60
 73
 -59
  0
VERTEX
  8
72OFGO3D01_WP__CONNECTOR__119
 10
0.0
 20
0.0
 30
0.0
 70
   128
 62
  9
 71
  60
 72
  59
 73
  62
  0
VERTEX
  8
72OFGO3D01_WP__CONNECTOR__119
 10
0.0
 20
0.0
 30
0.0
 70
   128
 62
  9
 71
 -62
 72
 -59
 73
 -60
  0
VERTEX
  8
72OFGO3D01_WP__CONNECTOR__119
 10
0.0
 20
0.0
 30
0.0
 70
   128
 62
  9
 71
  44
 72
  63
 73
  64
  0
VERTEX
  8
72OFGO3D01_WP__CONNECTOR__119
 10
0.0
 20
0.0
 30
0.0
 70
   128
 62
  9
 71
 -64
 72
 -63
 73
 -44
  0
VERTEX
  8
72OFGO3D01_WP__CONNECTOR__119
 10
0.0
 20
0.0
 30
0.0
 70
   128
 62
  9
 71
  51
 72
  49
 73
  52
  0
VERTEX
  8
72OFGO3D01_WP__CONNECTOR__119
 10
0.0
 20
0.0
 30
0.0
 70
   128
 62
  9
 71
 -52
 72
 -49
 73
 -51
  0
VERTEX
  8
72OFGO3D01_WP__CONNECTOR__119
 10
0.0
 20
0.0
 30
0.0
 70
   128
 62
  9
 71
  52
 72
  49
 73
  46
  0
VERTEX
  8
72OFGO3D01_WP__CONNECTOR__119
 10
0.0
 20
0.0
 30
0.0
 70
   128
 62
  9
 71
 -46
 72
 -49
 73
 -52
  0
VERTEX
  8
72OFGO3D01_WP__CONNECTOR__119
 10
0.0
 20
0.0
 30
0.0
 70
   128
 62
  9
 71
  47
 72
  65
 73
  48
  0
VERTEX
  8
72OFGO3D01_WP__CONNECTOR__119
 10
0.0
 20
0.0
 30
0.0
 70
   128
 62
  9
 71
 -48
 72
 -65
 73
 -47
  0
VERTEX
  8
72OFGO3D01_WP__CONNECTOR__119
 10
0.0
 20
0.0
 30
0.0
 70
   128
 62
  9
 71
  65
 72
  45
 73
  48
  0
VERTEX
  8
72OFGO3D01_WP__CONNECTOR__119
 10
0.0
 20
0.0
 30
0.0
 70
   128
 62
  9
 71
 -48
 72
 -45
 73
 -65
  0
VERTEX
  8
72OFGO3D01_WP__CONNECTOR__119
 10
0.0
 20
0.0
 30
0.0
 70
   128
 62
  9
 71
  48
 72
  45
 73
  42
  0
VERTEX
  8
72OFGO3D01_WP__CONNECTOR__119
 10
0.0
 20
0.0
 30
0.0
 70
   128
 62
  9
 71
 -42
 72
 -45
 73
 -48
  0
VERTEX
  8
72OFGO3D01_WP__CONNECTOR__119
 10
0.0
 20
0.0
 30
0.0
 70
   128
 62
  9
 71
  43
 72
  63
 73
  44
  0
VERTEX
  8
72OFGO3D01_WP__CONNECTOR__119
 10
0.0
 20
0.0
 30
0.0
 70
   128
 62
  9
 71
 -44
 72
 -63
 73
 -43
  0
VERTEX
  8
72OFGO3D01_WP__CONNECTOR__119
 10
0.0
 20
0.0
 30
0.0
 70
   128
 62
  9
 71
  63
 72
  62
 73
  64
  0
VERTEX
  8
72OFGO3D01_WP__CONNECTOR__119
 10
0.0
 20
0.0
 30
0.0
 70
   128
 62
  9
 71
 -64
 72
 -62
 73
 -63
  0
VERTEX
  8
72OFGO3D01_WP__CONNECTOR__119
 10
0.0
 20
0.0
 30
0.0
 70
   128
 62
  9
 71
  64
 72
  62
 73
  59
  0
VERTEX
  8
72OFGO3D01_WP__CONNECTOR__119
 10
0.0
 20
0.0
 30
0.0
 70
   128
 62
  9
 71
 -59
 72
 -62
 73
 -64
  0
VERTEX
  8
72OFGO3D01_WP__CONNECTOR__119
 10
0.0
 20
0.0
 30
0.0
 70
   128
 62
  9
 71
  60
 72
  57
 73
  61
  0
VERTEX
  8
72OFGO3D01_WP__CONNECTOR__119
 10
0.0
 20
0.0
 30
0.0
 70
   128
 62
  9
 71
 -61
 72
 -57
 73
 -60
  0
VERTEX
  8
72OFGO3D01_WP__CONNECTOR__119
 10
0.0
 20
0.0
 30
0.0
 70
   128
 62
  9
 71
  55
 72
  53
 73
  56
  0
VERTEX
  8
72OFGO3D01_WP__CONNECTOR__119
 10
0.0
 20
0.0
 30
0.0
 70
   128
 62
  9
 71
 -56
 72
 -53
 73
 -55
  0
VERTEX
  8
72OFGO3D01_WP__CONNECTOR__119
 10
0.0
 20
0.0
 30
0.0
 70
   128
 62
  9
 71
  57
 72
  58
 73
  61
  0
VERTEX
  8
72OFGO3D01_WP__CONNECTOR__119
 10
0.0
 20
0.0
 30
0.0
 70
   128
 62
  9
 71
 -61
 72
 -58
 73
 -57
  0
VERTEX
  8
72OFGO3D01_WP__CONNECTOR__119
 10
0.0
 20
0.0
 30
0.0
 70
   128
 62
  9
 71
  56
 72
  53
 73
  50
  0
VERTEX
  8
72OFGO3D01_WP__CONNECTOR__119
 10
0.0
 20
0.0
 30
0.0
 70
   128
 62
  9
 71
 -50
 72
 -53
 73
 -56
  0
VERTEX
  8
72OFGO3D01_WP__CONNECTOR__119
 10
0.0
 20
0.0
 30
0.0
 70
   128
 62
  9
 71
  51
 72
  53
 73
  63
  0
VERTEX
  8
72OFGO3D01_WP__CONNECTOR__119
 10
0.0
 20
0.0
 30
0.0
 70
   128
 62
  9
 71
 -63
 72
 -53
 73
 -51
  0
VERTEX
  8
72OFGO3D01_WP__CONNECTOR__119
 10
0.0
 20
0.0
 30
0.0
 70
   128
 62
  9
 71
  51
 72
  63
 73
  43
  0
VERTEX
  8
72OFGO3D01_WP__CONNECTOR__119
 10
0.0
 20
0.0
 30
0.0
 70
   128
 62
  9
 71
 -43
 72
 -63
 73
 -51
  0
VERTEX
  8
72OFGO3D01_WP__CONNECTOR__119
 10
0.0
 20
0.0
 30
0.0
 70
   128
 62
  9
 71
  51
 72
  43
 73
  45
  0
VERTEX
  8
72OFGO3D01_WP__CONNECTOR__119
 10
0.0
 20
0.0
 30
0.0
 70
   128
 62
  9
 71
 -45
 72
 -43
 73
 -51
  0
VERTEX
  8
72OFGO3D01_WP__CONNECTOR__119
 10
0.0
 20
0.0
 30
0.0
 70
   128
 62
  9
 71
  51
 72
  45
 73
  65
  0
VERTEX
  8
72OFGO3D01_WP__CONNECTOR__119
 10
0.0
 20
0.0
 30
0.0
 70
   128
 62
  9
 71
 -65
 72
 -45
 73
 -51
  0
VERTEX
  8
72OFGO3D01_WP__CONNECTOR__119
 10
0.0
 20
0.0
 30
0.0
 70
   128
 62
  9
 71
  51
 72
  65
 73
  47
  0
VERTEX
  8
72OFGO3D01_WP__CONNECTOR__119
 10
0.0
 20
0.0
 30
0.0
 70
   128
 62
  9
 71
 -47
 72
 -65
 73
 -51
  0
VERTEX
  8
72OFGO3D01_WP__CONNECTOR__119
 10
0.0
 20
0.0
 30
0.0
 70
   128
 62
  9
 71
  51
 72
  47
 73
  49
  0
VERTEX
  8
72OFGO3D01_WP__CONNECTOR__119
 10
0.0
 20
0.0
 30
0.0
 70
   128
 62
  9
 71
 -49
 72
 -47
 73
 -51
  0
VERTEX
  8
72OFGO3D01_WP__CONNECTOR__119
 10
0.0
 20
0.0
 30
0.0
 70
   128
 62
  9
 71
  57
 72
  62
 73
  55
  0
VERTEX
  8
72OFGO3D01_WP__CONNECTOR__119
 10
0.0
 20
0.0
 30
0.0
 70
   128
 62
  9
 71
 -55
 72
 -62
 73
 -57
  0
VERTEX
  8
72OFGO3D01_WP__CONNECTOR__119
 10
0.0
 20
0.0
 30
0.0
 70
   128
 62
  9
 71
  57
 72
  60
 73
  62
  0
VERTEX
  8
72OFGO3D01_WP__CONNECTOR__119
 10
0.0
 20
0.0
 30
0.0
 70
   128
 62
  9
 71
 -62
 72
 -60
 73
 -57
  0
VERTEX
  8
72OFGO3D01_WP__CONNECTOR__119
 10
0.0
 20
0.0
 30
0.0
 70
   128
 62
  9
 71
  62
 72
  63
 73
  55
  0
VERTEX
  8
72OFGO3D01_WP__CONNECTOR__119
 10
0.0
 20
0.0
 30
0.0
 70
   128
 62
  9
 71
 -55
 72
 -63
 73
 -62
  0
VERTEX
  8
72OFGO3D01_WP__CONNECTOR__119
 10
0.0
 20
0.0
 30
0.0
 70
   128
 62
  9
 71
  55
 72
  63
 73
  53
  0
VERTEX
  8
72OFGO3D01_WP__CONNECTOR__119
 10
0.0
 20
0.0
 30
0.0
 70
   128
 62
  9
 71
 -53
 72
 -63
 73
 -55
  0
VERTEX
  8
72OFGO3D01_WP__CONNECTOR__119
 10
0.0
 20
0.0
 30
0.0
 70
   128
 62
  9
 71
  4
 72
  41
 73
  6
  0
VERTEX
  8
72OFGO3D01_WP__CONNECTOR__119
 10
0.0
 20
0.0
 30
0.0
 70
   128
 62
  9
 71
 -6
 72
 -41
 73
 -4
  0
VERTEX
  8
72OFGO3D01_WP__CONNECTOR__119
 10
0.0
 20
0.0
 30
0.0
 70
   128
 62
  9
 71
  41
 72
  66
 73
  6
  0
VERTEX
  8
72OFGO3D01_WP__CONNECTOR__119
 10
0.0
 20
0.0
 30
0.0
 70
   128
 62
  9
 71
 -6
 72
 -66
 73
 -41
  0
VERTEX
  8
72OFGO3D01_WP__CONNECTOR__119
 10
0.0
 20
0.0
 30
0.0
 70
   128
 62
  9
 71
  67
 72
  8
 73
  68
  0
VERTEX
  8
72OFGO3D01_WP__CONNECTOR__119
 10
0.0
 20
0.0
 30
0.0
 70
   128
 62
  9
 71
 -68
 72
 -8
 73
 -67
  0
VERTEX
  8
72OFGO3D01_WP__CONNECTOR__119
 10
0.0
 20
0.0
 30
0.0
 70
   128
 62
  9
 71
  8
 72
  7
 73
  68
  0
VERTEX
  8
72OFGO3D01_WP__CONNECTOR__119
 10
0.0
 20
0.0
 30
0.0
 70
   128
 62
  9
 71
 -68
 72
 -7
 73
 -8
  0
VERTEX
  8
72OFGO3D01_WP__CONNECTOR__119
 10
0.0
 20
0.0
 30
0.0
 70
   128
 62
  9
 71
  7
 72
  6
 73
  68
  0
VERTEX
  8
72OFGO3D01_WP__CONNECTOR__119
 10
0.0
 20
0.0
 30
0.0
 70
   128
 62
  9
 71
 -68
 72
 -6
 73
 -7
  0
VERTEX
  8
72OFGO3D01_WP__CONNECTOR__119
 10
0.0
 20
0.0
 30
0.0
 70
   128
 62
  9
 71
  68
 72
  6
 73
  66
  0
VERTEX
  8
72OFGO3D01_WP__CONNECTOR__119
 10
0.0
 20
0.0
 30
0.0
 70
   128
 62
  9
 71
 -66
 72
 -6
 73
 -68
  0
VERTEX
  8
72OFGO3D01_WP__CONNECTOR__119
 10
0.0
 20
0.0
 30
0.0
 70
   128
 62
  9
 71
  69
 72
  9
 73
  67
  0
VERTEX
  8
72OFGO3D01_WP__CONNECTOR__119
 10
0.0
 20
0.0
 30
0.0
 70
   128
 62
  9
 71
 -67
 72
 -9
 73
 -69
  0
VERTEX
  8
72OFGO3D01_WP__CONNECTOR__119
 10
0.0
 20
0.0
 30
0.0
 70
   128
 62
  9
 71
  9
 72
  8
 73
  67
  0
VERTEX
  8
72OFGO3D01_WP__CONNECTOR__119
 10
0.0
 20
0.0
 30
0.0
 70
   128
 62
  9
 71
 -67
 72
 -8
 73
 -9
  0
VERTEX
  8
72OFGO3D01_WP__CONNECTOR__119
 10
0.0
 20
0.0
 30
0.0
 70
   128
 62
  9
 71
  9
 72
  69
 73
  11
  0
VERTEX
  8
72OFGO3D01_WP__CONNECTOR__119
 10
0.0
 20
0.0
 30
0.0
 70
   128
 62
  9
 71
 -11
 72
 -69
 73
 -9
  0
VERTEX
  8
72OFGO3D01_WP__CONNECTOR__119
 10
0.0
 20
0.0
 30
0.0
 70
   128
 62
  9
 71
  69
 72
  70
 73
  11
  0
VERTEX
  8
72OFGO3D01_WP__CONNECTOR__119
 10
0.0
 20
0.0
 30
0.0
 70
   128
 62
  9
 71
 -11
 72
 -70
 73
 -69
  0
VERTEX
  8
72OFGO3D01_WP__CONNECTOR__119
 10
0.0
 20
0.0
 30
0.0
 70
   128
 62
  9
 71
  71
 72
  14
 73
  72
  0
VERTEX
  8
72OFGO3D01_WP__CONNECTOR__119
 10
0.0
 20
0.0
 30
0.0
 70
   128
 62
  9
 71
 -72
 72
 -14
 73
 -71
  0
VERTEX
  8
72OFGO3D01_WP__CONNECTOR__119
 10
0.0
 20
0.0
 30
0.0
 70
   128
 62
  9
 71
  14
 72
  13
 73
  72
  0
VERTEX
  8
72OFGO3D01_WP__CONNECTOR__119
 10
0.0
 20
0.0
 30
0.0
 70
   128
 62
  9
 71
 -72
 72
 -13
 73
 -14
  0
VERTEX
  8
72OFGO3D01_WP__CONNECTOR__119
 10
0.0
 20
0.0
 30
0.0
 70
   128
 62
  9
 71
  13
 72
  11
 73
  72
  0
VERTEX
  8
72OFGO3D01_WP__CONNECTOR__119
 10
0.0
 20
0.0
 30
0.0
 70
   128
 62
  9
 71
 -72
 72
 -11
 73
 -13
  0
VERTEX
  8
72OFGO3D01_WP__CONNECTOR__119
 10
0.0
 20
0.0
 30
0.0
 70
   128
 62
  9
 71
  11
 72
  70
 73
  72
  0
VERTEX
  8
72OFGO3D01_WP__CONNECTOR__119
 10
0.0
 20
0.0
 30
0.0
 70
   128
 62
  9
 71
 -72
 72
 -70
 73
 -11
  0
VERTEX
  8
72OFGO3D01_WP__CONNECTOR__119
 10
0.0
 20
0.0
 30
0.0
 70
   128
 62
  9
 71
  73
 72
  18
 73
  71
  0
VERTEX
  8
72OFGO3D01_WP__CONNECTOR__119
 10
0.0
 20
0.0
 30
0.0
 70
   128
 62
  9
 71
 -71
 72
 -18
 73
 -73
  0
VERTEX
  8
72OFGO3D01_WP__CONNECTOR__119
 10
0.0
 20
0.0
 30
0.0
 70
   128
 62
  9
 71
  18
 72
  14
 73
  71
  0
VERTEX
  8
72OFGO3D01_WP__CONNECTOR__119
 10
0.0
 20
0.0
 30
0.0
 70
   128
 62
  9
 71
 -71
 72
 -14
 73
 -18
  0
VERTEX
  8
72OFGO3D01_WP__CONNECTOR__119
 10
0.0
 20
0.0
 30
0.0
 70
   128
 62
  9
 71
  18
 72
  73
 73
  16
  0
VERTEX
  8
72OFGO3D01_WP__CONNECTOR__119
 10
0.0
 20
0.0
 30
0.0
 70
   128
 62
  9
 71
 -16
 72
 -73
 73
 -18
  0
VERTEX
  8
72OFGO3D01_WP__CONNECTOR__119
 10
0.0
 20
0.0
 30
0.0
 70
   128
 62
  9
 71
  73
 72
  74
 73
  16
  0
VERTEX
  8
72OFGO3D01_WP__CONNECTOR__119
 10
0.0
 20
0.0
 30
0.0
 70
   128
 62
  9
 71
 -16
 72
 -74
 73
 -73
  0
VERTEX
  8
72OFGO3D01_WP__CONNECTOR__119
 10
0.0
 20
0.0
 30
0.0
 70
   128
 62
  9
 71
  75
 72
  19
 73
  76
  0
VERTEX
  8
72OFGO3D01_WP__CONNECTOR__119
 10
0.0
 20
0.0
 30
0.0
 70
   128
 62
  9
 71
 -76
 72
 -19
 73
 -75
  0
VERTEX
  8
72OFGO3D01_WP__CONNECTOR__119
 10
0.0
 20
0.0
 30
0.0
 70
   128
 62
  9
 71
  19
 72
  17
 73
  76
  0
VERTEX
  8
72OFGO3D01_WP__CONNECTOR__119
 10
0.0
 20
0.0
 30
0.0
 70
   128
 62
  9
 71
 -76
 72
 -17
 73
 -19
  0
VERTEX
  8
72OFGO3D01_WP__CONNECTOR__119
 10
0.0
 20
0.0
 30
0.0
 70
   128
 62
  9
 71
  17
 72
  16
 73
  76
  0
VERTEX
  8
72OFGO3D01_WP__CONNECTOR__119
 10
0.0
 20
0.0
 30
0.0
 70
   128
 62
  9
 71
 -76
 72
 -16
 73
 -17
  0
VERTEX
  8
72OFGO3D01_WP__CONNECTOR__119
 10
0.0
 20
0.0
 30
0.0
 70
   128
 62
  9
 71
  16
 72
  74
 73
  76
  0
VERTEX
  8
72OFGO3D01_WP__CONNECTOR__119
 10
0.0
 20
0.0
 30
0.0
 70
   128
 62
  9
 71
 -76
 72
 -74
 73
 -16
  0
VERTEX
  8
72OFGO3D01_WP__CONNECTOR__119
 10
0.0
 20
0.0
 30
0.0
 70
   128
 62
  9
 71
  77
 72
  20
 73
  75
  0
VERTEX
  8
72OFGO3D01_WP__CONNECTOR__119
 10
0.0
 20
0.0
 30
0.0
 70
   128
 62
  9
 71
 -75
 72
 -20
 73
 -77
  0
VERTEX
  8
72OFGO3D01_WP__CONNECTOR__119
 10
0.0
 20
0.0
 30
0.0
 70
   128
 62
  9
 71
  20
 72
  19
 73
  75
  0
VERTEX
  8
72OFGO3D01_WP__CONNECTOR__119
 10
0.0
 20
0.0
 30
0.0
 70
   128
 62
  9
 71
 -75
 72
 -19
 73
 -20
  0
VERTEX
  8
72OFGO3D01_WP__CONNECTOR__119
 10
0.0
 20
0.0
 30
0.0
 70
   128
 62
  9
 71
  77
 72
  78
 73
  20
  0
VERTEX
  8
72OFGO3D01_WP__CONNECTOR__119
 10
0.0
 20
0.0
 30
0.0
 70
   128
 62
  9
 71
 -20
 72
 -78
 73
 -77
  0
VERTEX
  8
72OFGO3D01_WP__CONNECTOR__119
 10
0.0
 20
0.0
 30
0.0
 70
   128
 62
  9
 71
  20
 72
  78
 73
  22
  0
VERTEX
  8
72OFGO3D01_WP__CONNECTOR__119
 10
0.0
 20
0.0
 30
0.0
 70
   128
 62
  9
 71
 -22
 72
 -78
 73
 -20
  0
VERTEX
  8
72OFGO3D01_WP__CONNECTOR__119
 10
0.0
 20
0.0
 30
0.0
 70
   128
 62
  9
 71
  79
 72
  23
 73
  80
  0
VERTEX
  8
72OFGO3D01_WP__CONNECTOR__119
 10
0.0
 20
0.0
 30
0.0
 70
   128
 62
  9
 71
 -80
 72
 -23
 73
 -79
  0
VERTEX
  8
72OFGO3D01_WP__CONNECTOR__119
 10
0.0
 20
0.0
 30
0.0
 70
   128
 62
  9
 71
  79
 72
  21
 73
  23
  0
VERTEX
  8
72OFGO3D01_WP__CONNECTOR__119
 10
0.0
 20
0.0
 30
0.0
 70
   128
 62
  9
 71
 -23
 72
 -21
 73
 -79
  0
VERTEX
  8
72OFGO3D01_WP__CONNECTOR__119
 10
0.0
 20
0.0
 30
0.0
 70
   128
 62
  9
 71
  23
 72
  22
 73
  80
  0
VERTEX
  8
72OFGO3D01_WP__CONNECTOR__119
 10
0.0
 20
0.0
 30
0.0
 70
   128
 62
  9
 71
 -80
 72
 -22
 73
 -23
  0
VERTEX
  8
72OFGO3D01_WP__CONNECTOR__119
 10
0.0
 20
0.0
 30
0.0
 70
   128
 62
  9
 71
  80
 72
  22
 73
  78
  0
VERTEX
  8
72OFGO3D01_WP__CONNECTOR__119
 10
0.0
 20
0.0
 30
0.0
 70
   128
 62
  9
 71
 -78
 72
 -22
 73
 -80
  0
VERTEX
  8
72OFGO3D01_WP__CONNECTOR__119
 10
0.0
 20
0.0
 30
0.0
 70
   128
 62
  9
 71
  79
 72
  81
 73
  21
  0
VERTEX
  8
72OFGO3D01_WP__CONNECTOR__119
 10
0.0
 20
0.0
 30
0.0
 70
   128
 62
  9
 71
 -21
 72
 -81
 73
 -79
  0
VERTEX
  8
72OFGO3D01_WP__CONNECTOR__119
 10
0.0
 20
0.0
 30
0.0
 70
   128
 62
  9
 71
  81
 72
  24
 73
  21
  0
VERTEX
  8
72OFGO3D01_WP__CONNECTOR__119
 10
0.0
 20
0.0
 30
0.0
 70
   128
 62
  9
 71
 -21
 72
 -24
 73
 -81
  0
VERTEX
  8
72OFGO3D01_WP__CONNECTOR__119
 10
0.0
 20
0.0
 30
0.0
 70
   128
 62
  9
 71
  81
 72
  82
 73
  24
  0
VERTEX
  8
72OFGO3D01_WP__CONNECTOR__119
 10
0.0
 20
0.0
 30
0.0
 70
   128
 62
  9
 71
 -24
 72
 -82
 73
 -81
  0
VERTEX
  8
72OFGO3D01_WP__CONNECTOR__119
 10
0.0
 20
0.0
 30
0.0
 70
   128
 62
  9
 71
  24
 72
  82
 73
  26
  0
VERTEX
  8
72OFGO3D01_WP__CONNECTOR__119
 10
0.0
 20
0.0
 30
0.0
 70
   128
 62
  9
 71
 -26
 72
 -82
 73
 -24
  0
VERTEX
  8
72OFGO3D01_WP__CONNECTOR__119
 10
0.0
 20
0.0
 30
0.0
 70
   128
 62
  9
 71
  83
 72
  25
 73
  84
  0
VERTEX
  8
72OFGO3D01_WP__CONNECTOR__119
 10
0.0
 20
0.0
 30
0.0
 70
   128
 62
  9
 71
 -84
 72
 -25
 73
 -83
  0
VERTEX
  8
72OFGO3D01_WP__CONNECTOR__119
 10
0.0
 20
0.0
 30
0.0
 70
   128
 62
  9
 71
  83
 72
  15
 73
  25
  0
VERTEX
  8
72OFGO3D01_WP__CONNECTOR__119
 10
0.0
 20
0.0
 30
0.0
 70
   128
 62
  9
 71
 -25
 72
 -15
 73
 -83
  0
VERTEX
  8
72OFGO3D01_WP__CONNECTOR__119
 10
0.0
 20
0.0
 30
0.0
 70
   128
 62
  9
 71
  25
 72
  26
 73
  84
  0
VERTEX
  8
72OFGO3D01_WP__CONNECTOR__119
 10
0.0
 20
0.0
 30
0.0
 70
   128
 62
  9
 71
 -84
 72
 -26
 73
 -25
  0
VERTEX
  8
72OFGO3D01_WP__CONNECTOR__119
 10
0.0
 20
0.0
 30
0.0
 70
   128
 62
  9
 71
  84
 72
  26
 73
  82
  0
VERTEX
  8
72OFGO3D01_WP__CONNECTOR__119
 10
0.0
 20
0.0
 30
0.0
 70
   128
 62
  9
 71
 -82
 72
 -26
 73
 -84
  0
VERTEX
  8
72OFGO3D01_WP__CONNECTOR__119
 10
0.0
 20
0.0
 30
0.0
 70
   128
 62
  9
 71
  85
 72
  12
 73
  83
  0
VERTEX
  8
72OFGO3D01_WP__CONNECTOR__119
 10
0.0
 20
0.0
 30
0.0
 70
   128
 62
  9
 71
 -83
 72
 -12
 73
 -85
  0
VERTEX
  8
72OFGO3D01_WP__CONNECTOR__119
 10
0.0
 20
0.0
 30
0.0
 70
   128
 62
  9
 71
  12
 72
  15
 73
  83
  0
VERTEX
  8
72OFGO3D01_WP__CONNECTOR__119
 10
0.0
 20
0.0
 30
0.0
 70
   128
 62
  9
 71
 -83
 72
 -15
 73
 -12
  0
VERTEX
  8
72OFGO3D01_WP__CONNECTOR__119
 10
0.0
 20
0.0
 30
0.0
 70
   128
 62
  9
 71
  12
 72
  85
 73
  27
  0
VERTEX
  8
72OFGO3D01_WP__CONNECTOR__119
 10
0.0
 20
0.0
 30
0.0
 70
   128
 62
  9
 71
 -27
 72
 -85
 73
 -12
  0
VERTEX
  8
72OFGO3D01_WP__CONNECTOR__119
 10
0.0
 20
0.0
 30
0.0
 70
   128
 62
  9
 71
  85
 72
  86
 73
  27
  0
VERTEX
  8
72OFGO3D01_WP__CONNECTOR__119
 10
0.0
 20
0.0
 30
0.0
 70
   128
 62
  9
 71
 -27
 72
 -86
 73
 -85
  0
VERTEX
  8
72OFGO3D01_WP__CONNECTOR__119
 10
0.0
 20
0.0
 30
0.0
 70
   128
 62
  9
 71
  87
 72
  28
 73
  88
  0
VERTEX
  8
72OFGO3D01_WP__CONNECTOR__119
 10
0.0
 20
0.0
 30
0.0
 70
   128
 62
  9
 71
 -88
 72
 -28
 73
 -87
  0
VERTEX
  8
72OFGO3D01_WP__CONNECTOR__119
 10
0.0
 20
0.0
 30
0.0
 70
   128
 62
  9
 71
  28
 72
  10
 73
  88
  0
VERTEX
  8
72OFGO3D01_WP__CONNECTOR__119
 10
0.0
 20
0.0
 30
0.0
 70
   128
 62
  9
 71
 -88
 72
 -10
 73
 -28
  0
VERTEX
  8
72OFGO3D01_WP__CONNECTOR__119
 10
0.0
 20
0.0
 30
0.0
 70
   128
 62
  9
 71
  10
 72
  27
 73
  88
  0
VERTEX
  8
72OFGO3D01_WP__CONNECTOR__119
 10
0.0
 20
0.0
 30
0.0
 70
   128
 62
  9
 71
 -88
 72
 -27
 73
 -10
  0
VERTEX
  8
72OFGO3D01_WP__CONNECTOR__119
 10
0.0
 20
0.0
 30
0.0
 70
   128
 62
  9
 71
  27
 72
  86
 73
  88
  0
VERTEX
  8
72OFGO3D01_WP__CONNECTOR__119
 10
0.0
 20
0.0
 30
0.0
 70
   128
 62
  9
 71
 -88
 72
 -86
 73
 -27
  0
VERTEX
  8
72OFGO3D01_WP__CONNECTOR__119
 10
0.0
 20
0.0
 30
0.0
 70
   128
 62
  9
 71
  89
 72
  5
 73
  87
  0
VERTEX
  8
72OFGO3D01_WP__CONNECTOR__119
 10
0.0
 20
0.0
 30
0.0
 70
   128
 62
  9
 71
 -87
 72
 -5
 73
 -89
  0
VERTEX
  8
72OFGO3D01_WP__CONNECTOR__119
 10
0.0
 20
0.0
 30
0.0
 70
   128
 62
  9
 71
  5
 72
  28
 73
  87
  0
VERTEX
  8
72OFGO3D01_WP__CONNECTOR__119
 10
0.0
 20
0.0
 30
0.0
 70
   128
 62
  9
 71
 -87
 72
 -28
 73
 -5
  0
VERTEX
  8
72OFGO3D01_WP__CONNECTOR__119
 10
0.0
 20
0.0
 30
0.0
 70
   128
 62
  9
 71
  5
 72
  89
 73
  29
  0
VERTEX
  8
72OFGO3D01_WP__CONNECTOR__119
 10
0.0
 20
0.0
 30
0.0
 70
   128
 62
  9
 71
 -29
 72
 -89
 73
 -5
  0
VERTEX
  8
72OFGO3D01_WP__CONNECTOR__119
 10
0.0
 20
0.0
 30
0.0
 70
   128
 62
  9
 71
  89
 72
  90
 73
  29
  0
VERTEX
  8
72OFGO3D01_WP__CONNECTOR__119
 10
0.0
 20
0.0
 30
0.0
 70
   128
 62
  9
 71
 -29
 72
 -90
 73
 -89
  0
VERTEX
  8
72OFGO3D01_WP__CONNECTOR__119
 10
0.0
 20
0.0
 30
0.0
 70
   128
 62
  9
 71
  91
 72
  30
 73
  92
  0
VERTEX
  8
72OFGO3D01_WP__CONNECTOR__119
 10
0.0
 20
0.0
 30
0.0
 70
   128
 62
  9
 71
 -92
 72
 -30
 73
 -91
  0
VERTEX
  8
72OFGO3D01_WP__CONNECTOR__119
 10
0.0
 20
0.0
 30
0.0
 70
   128
 62
  9
 71
  30
 72
  2
 73
  92
  0
VERTEX
  8
72OFGO3D01_WP__CONNECTOR__119
 10
0.0
 20
0.0
 30
0.0
 70
   128
 62
  9
 71
 -92
 72
 -2
 73
 -30
  0
VERTEX
  8
72OFGO3D01_WP__CONNECTOR__119
 10
0.0
 20
0.0
 30
0.0
 70
   128
 62
  9
 71
  2
 72
  29
 73
  92
  0
VERTEX
  8
72OFGO3D01_WP__CONNECTOR__119
 10
0.0
 20
0.0
 30
0.0
 70
   128
 62
  9
 71
 -92
 72
 -29
 73
 -2
  0
VERTEX
  8
72OFGO3D01_WP__CONNECTOR__119
 10
0.0
 20
0.0
 30
0.0
 70
   128
 62
  9
 71
  29
 72
  90
 73
  92
  0
VERTEX
  8
72OFGO3D01_WP__CONNECTOR__119
 10
0.0
 20
0.0
 30
0.0
 70
   128
 62
  9
 71
 -92
 72
 -90
 73
 -29
  0
VERTEX
  8
72OFGO3D01_WP__CONNECTOR__119
 10
0.0
 20
0.0
 30
0.0
 70
   128
 62
  9
 71
  91
 72
  93
 73
  30
  0
VERTEX
  8
72OFGO3D01_WP__CONNECTOR__119
 10
0.0
 20
0.0
 30
0.0
 70
   128
 62
  9
 71
 -30
 72
 -93
 73
 -91
  0
VERTEX
  8
72OFGO3D01_WP__CONNECTOR__119
 10
0.0
 20
0.0
 30
0.0
 70
   128
 62
  9
 71
  93
 72
  31
 73
  30
  0
VERTEX
  8
72OFGO3D01_WP__CONNECTOR__119
 10
0.0
 20
0.0
 30
0.0
 70
   128
 62
  9
 71
 -30
 72
 -31
 73
 -93
  0
VERTEX
  8
72OFGO3D01_WP__CONNECTOR__119
 10
0.0
 20
0.0
 30
0.0
 70
   128
 62
  9
 71
  94
 72
  35
 73
  93
  0
VERTEX
  8
72OFGO3D01_WP__CONNECTOR__119
 10
0.0
 20
0.0
 30
0.0
 70
   128
 62
  9
 71
 -93
 72
 -35
 73
 -94
  0
VERTEX
  8
72OFGO3D01_WP__CONNECTOR__119
 10
0.0
 20
0.0
 30
0.0
 70
   128
 62
  9
 71
  35
 72
  31
 73
  93
  0
VERTEX
  8
72OFGO3D01_WP__CONNECTOR__119
 10
0.0
 20
0.0
 30
0.0
 70
   128
 62
  9
 71
 -93
 72
 -31
 73
 -35
  0
VERTEX
  8
72OFGO3D01_WP__CONNECTOR__119
 10
0.0
 20
0.0
 30
0.0
 70
   128
 62
  9
 71
  94
 72
  95
 73
  35
  0
VERTEX
  8
72OFGO3D01_WP__CONNECTOR__119
 10
0.0
 20
0.0
 30
0.0
 70
   128
 62
  9
 71
 -35
 72
 -95
 73
 -94
  0
VERTEX
  8
72OFGO3D01_WP__CONNECTOR__119
 10
0.0
 20
0.0
 30
0.0
 70
   128
 62
  9
 71
  35
 72
  95
 73
  33
  0
VERTEX
  8
72OFGO3D01_WP__CONNECTOR__119
 10
0.0
 20
0.0
 30
0.0
 70
   128
 62
  9
 71
 -33
 72
 -95
 73
 -35
  0
VERTEX
  8
72OFGO3D01_WP__CONNECTOR__119
 10
0.0
 20
0.0
 30
0.0
 70
   128
 62
  9
 71
  96
 72
  34
 73
  97
  0
VERTEX
  8
72OFGO3D01_WP__CONNECTOR__119
 10
0.0
 20
0.0
 30
0.0
 70
   128
 62
  9
 71
 -97
 72
 -34
 73
 -96
  0
VERTEX
  8
72OFGO3D01_WP__CONNECTOR__119
 10
0.0
 20
0.0
 30
0.0
 70
   128
 62
  9
 71
  96
 72
  36
 73
  34
  0
VERTEX
  8
72OFGO3D01_WP__CONNECTOR__119
 10
0.0
 20
0.0
 30
0.0
 70
   128
 62
  9
 71
 -34
 72
 -36
 73
 -96
  0
VERTEX
  8
72OFGO3D01_WP__CONNECTOR__119
 10
0.0
 20
0.0
 30
0.0
 70
   128
 62
  9
 71
  34
 72
  33
 73
  97
  0
VERTEX
  8
72OFGO3D01_WP__CONNECTOR__119
 10
0.0
 20
0.0
 30
0.0
 70
   128
 62
  9
 71
 -97
 72
 -33
 73
 -34
  0
VERTEX
  8
72OFGO3D01_WP__CONNECTOR__119
 10
0.0
 20
0.0
 30
0.0
 70
   128
 62
  9
 71
  97
 72
  33
 73
  95
  0
VERTEX
  8
72OFGO3D01_WP__CONNECTOR__119
 10
0.0
 20
0.0
 30
0.0
 70
   128
 62
  9
 71
 -95
 72
 -33
 73
 -97
  0
VERTEX
  8
72OFGO3D01_WP__CONNECTOR__119
 10
0.0
 20
0.0
 30
0.0
 70
   128
 62
  9
 71
  96
 72
  98
 73
  36
  0
VERTEX
  8
72OFGO3D01_WP__CONNECTOR__119
 10
0.0
 20
0.0
 30
0.0
 70
   128
 62
  9
 71
 -36
 72
 -98
 73
 -96
  0
VERTEX
  8
72OFGO3D01_WP__CONNECTOR__119
 10
0.0
 20
0.0
 30
0.0
 70
   128
 62
  9
 71
  98
 72
  37
 73
  36
  0
VERTEX
  8
72OFGO3D01_WP__CONNECTOR__119
 10
0.0
 20
0.0
 30
0.0
 70
   128
 62
  9
 71
 -36
 72
 -37
 73
 -98
  0
VERTEX
  8
72OFGO3D01_WP__CONNECTOR__119
 10
0.0
 20
0.0
 30
0.0
 70
   128
 62
  9
 71
  98
 72
  99
 73
  37
  0
VERTEX
  8
72OFGO3D01_WP__CONNECTOR__119
 10
0.0
 20
0.0
 30
0.0
 70
   128
 62
  9
 71
 -37
 72
 -99
 73
 -98
  0
VERTEX
  8
72OFGO3D01_WP__CONNECTOR__119
 10
0.0
 20
0.0
 30
0.0
 70
   128
 62
  9
 71
  37
 72
  99
 73
  39
  0
VERTEX
  8
72OFGO3D01_WP__CONNECTOR__119
 10
0.0
 20
0.0
 30
0.0
 70
   128
 62
  9
 71
 -39
 72
 -99
 73
 -37
  0
VERTEX
  8
72OFGO3D01_WP__CONNECTOR__119
 10
0.0
 20
0.0
 30
0.0
 70
   128
 62
  9
 71
  100
 72
  38
 73
  101
  0
VERTEX
  8
72OFGO3D01_WP__CONNECTOR__119
 10
0.0
 20
0.0
 30
0.0
 70
   128
 62
  9
 71
 -101
 72
 -38
 73
 -100
  0
VERTEX
  8
72OFGO3D01_WP__CONNECTOR__119
 10
0.0
 20
0.0
 30
0.0
 70
   128
 62
  9
 71
  100
 72
  32
 73
  38
  0
VERTEX
  8
72OFGO3D01_WP__CONNECTOR__119
 10
0.0
 20
0.0
 30
0.0
 70
   128
 62
  9
 71
 -38
 72
 -32
 73
 -100
  0
VERTEX
  8
72OFGO3D01_WP__CONNECTOR__119
 10
0.0
 20
0.0
 30
0.0
 70
   128
 62
  9
 71
  38
 72
  39
 73
  101
  0
VERTEX
  8
72OFGO3D01_WP__CONNECTOR__119
 10
0.0
 20
0.0
 30
0.0
 70
   128
 62
  9
 71
 -101
 72
 -39
 73
 -38
  0
VERTEX
  8
72OFGO3D01_WP__CONNECTOR__119
 10
0.0
 20
0.0
 30
0.0
 70
   128
 62
  9
 71
  101
 72
  39
 73
  99
  0
VERTEX
  8
72OFGO3D01_WP__CONNECTOR__119
 10
0.0
 20
0.0
 30
0.0
 70
   128
 62
  9
 71
 -99
 72
 -39
 73
 -101
  0
VERTEX
  8
72OFGO3D01_WP__CONNECTOR__119
 10
0.0
 20
0.0
 30
0.0
 70
   128
 62
  9
 71
  102
 72
  3
 73
  100
  0
VERTEX
  8
72OFGO3D01_WP__CONNECTOR__119
 10
0.0
 20
0.0
 30
0.0
 70
   128
 62
  9
 71
 -100
 72
 -3
 73
 -102
  0
VERTEX
  8
72OFGO3D01_WP__CONNECTOR__119
 10
0.0
 20
0.0
 30
0.0
 70
   128
 62
  9
 71
  3
 72
  32
 73
  100
  0
VERTEX
  8
72OFGO3D01_WP__CONNECTOR__119
 10
0.0
 20
0.0
 30
0.0
 70
   128
 62
  9
 71
 -100
 72
 -32
 73
 -3
  0
VERTEX
  8
72OFGO3D01_WP__CONNECTOR__119
 10
0.0
 20
0.0
 30
0.0
 70
   128
 62
  9
 71
  64
 72
  1
 73
  44
  0
VERTEX
  8
72OFGO3D01_WP__CONNECTOR__119
 10
0.0
 20
0.0
 30
0.0
 70
   128
 62
  9
 71
 -44
 72
 -1
 73
 -64
  0
VERTEX
  8
72OFGO3D01_WP__CONNECTOR__119
 10
0.0
 20
0.0
 30
0.0
 70
   128
 62
  9
 71
  64
 72
  59
 73
  1
  0
VERTEX
  8
72OFGO3D01_WP__CONNECTOR__119
 10
0.0
 20
0.0
 30
0.0
 70
   128
 62
  9
 71
 -1
 72
 -59
 73
 -64
  0
VERTEX
  8
72OFGO3D01_WP__CONNECTOR__119
 10
0.0
 20
0.0
 30
0.0
 70
   128
 62
  9
 71
  59
 72
  61
 73
  1
  0
VERTEX
  8
72OFGO3D01_WP__CONNECTOR__119
 10
0.0
 20
0.0
 30
0.0
 70
   128
 62
  9
 71
 -1
 72
 -61
 73
 -59
  0
VERTEX
  8
72OFGO3D01_WP__CONNECTOR__119
 10
0.0
 20
0.0
 30
0.0
 70
   128
 62
  9
 71
  1
 72
  61
 73
  40
  0
VERTEX
  8
72OFGO3D01_WP__CONNECTOR__119
 10
0.0
 20
0.0
 30
0.0
 70
   128
 62
  9
 71
 -40
 72
 -61
 73
 -1
  0
VERTEX
  8
72OFGO3D01_WP__CONNECTOR__119
 10
0.0
 20
0.0
 30
0.0
 70
   128
 62
  9
 71
  61
 72
  58
 73
  40
  0
VERTEX
  8
72OFGO3D01_WP__CONNECTOR__119
 10
0.0
 20
0.0
 30
0.0
 70
   128
 62
  9
 71
 -40
 72
 -58
 73
 -61
  0
VERTEX
  8
72OFGO3D01_WP__CONNECTOR__119
 10
0.0
 20
0.0
 30
0.0
 70
   128
 62
  9
 71
  58
 72
  54
 73
  40
  0
VERTEX
  8
72OFGO3D01_WP__CONNECTOR__119
 10
0.0
 20
0.0
 30
0.0
 70
   128
 62
  9
 71
 -40
 72
 -54
 73
 -58
  0
VERTEX
  8
72OFGO3D01_WP__CONNECTOR__119
 10
0.0
 20
0.0
 30
0.0
 70
   128
 62
  9
 71
  50
 72
  102
 73
  56
  0
VERTEX
  8
72OFGO3D01_WP__CONNECTOR__119
 10
0.0
 20
0.0
 30
0.0
 70
   128
 62
  9
 71
 -56
 72
 -102
 73
 -50
  0
VERTEX
  8
72OFGO3D01_WP__CONNECTOR__119
 10
0.0
 20
0.0
 30
0.0
 70
   128
 62
  9
 71
  50
 72
  52
 73
  102
  0
VERTEX
  8
72OFGO3D01_WP__CONNECTOR__119
 10
0.0
 20
0.0
 30
0.0
 70
   128
 62
  9
 71
 -102
 72
 -52
 73
 -50
  0
VERTEX
  8
72OFGO3D01_WP__CONNECTOR__119
 10
0.0
 20
0.0
 30
0.0
 70
   128
 62
  9
 71
  52
 72
  46
 73
  102
  0
VERTEX
  8
72OFGO3D01_WP__CONNECTOR__119
 10
0.0
 20
0.0
 30
0.0
 70
   128
 62
  9
 71
 -102
 72
 -46
 73
 -52
  0
VERTEX
  8
72OFGO3D01_WP__CONNECTOR__119
 10
0.0
 20
0.0
 30
0.0
 70
   128
 62
  9
 71
  102
 72
  46
 73
  3
  0
VERTEX
  8
72OFGO3D01_WP__CONNECTOR__119
 10
0.0
 20
0.0
 30
0.0
 70
   128
 62
  9
 71
 -3
 72
 -46
 73
 -102
  0
VERTEX
  8
72OFGO3D01_WP__CONNECTOR__119
 10
0.0
 20
0.0
 30
0.0
 70
   128
 62
  9
 71
  46
 72
  48
 73
  3
  0
VERTEX
  8
72OFGO3D01_WP__CONNECTOR__119
 10
0.0
 20
0.0
 30
0.0
 70
   128
 62
  9
 71
 -3
 72
 -48
 73
 -46
  0
VERTEX
  8
72OFGO3D01_WP__CONNECTOR__119
 10
0.0
 20
0.0
 30
0.0
 70
   128
 62
  9
 71
  48
 72
  42
 73
  3
  0
VERTEX
  8
72OFGO3D01_WP__CONNECTOR__119
 10
0.0
 20
0.0
 30
0.0
 70
   128
 62
  9
 71
 -3
 72
 -42
 73
 -48
  0
VERTEX
  8
72OFGO3D01_WP__CONNECTOR__119
 10
0.0
 20
0.0
 30
0.0
 70
   128
 62
  9
 71
  102
 72
  40
 73
  56
  0
VERTEX
  8
72OFGO3D01_WP__CONNECTOR__119
 10
0.0
 20
0.0
 30
0.0
 70
   128
 62
  9
 71
 -56
 72
 -40
 73
 -102
  0
VERTEX
  8
72OFGO3D01_WP__CONNECTOR__119
 10
0.0
 20
0.0
 30
0.0
 70
   128
 62
  9
 71
  1
 72
  3
 73
  44
  0
VERTEX
  8
72OFGO3D01_WP__CONNECTOR__119
 10
0.0
 20
0.0
 30
0.0
 70
   128
 62
  9
 71
 -44
 72
 -3
 73
 -1
  0
VERTEX
  8
72OFGO3D01_WP__CONNECTOR__119
 10
0.0
 20
0.0
 30
0.0
 70
   128
 62
  9
 71
  44
 72
  3
 73
  42
  0
VERTEX
  8
72OFGO3D01_WP__CONNECTOR__119
 10
0.0
 20
0.0
 30
0.0
 70
   128
 62
  9
 71
 -42
 72
 -3
 73
 -44
  0
VERTEX
  8
72OFGO3D01_WP__CONNECTOR__119
 10
0.0
 20
0.0
 30
0.0
 70
   128
 62
  9
 71
  56
 72
  40
 73
  54
  0
VERTEX
  8
72OFGO3D01_WP__CONNECTOR__119
 10
0.0
 20
0.0
 30
0.0
 70
   128
 62
  9
 71
 -54
 72
 -40
 73
 -56
  0
VERTEX
  8
72OFGO3D01_WP__CONNECTOR__119
 10
0.0
 20
0.0
 30
0.0
 70
   128
 62
  9
 71
  102
 72
  92
 73
  40
  0
VERTEX
  8
72OFGO3D01_WP__CONNECTOR__119
 10
0.0
 20
0.0
 30
0.0
 70
   128
 62
  9
 71
 -40
 72
 -92
 73
 -102
  0
VERTEX
  8
72OFGO3D01_WP__CONNECTOR__119
 10
0.0
 20
0.0
 30
0.0
 70
   128
 62
  9
 71
  100
 72
  93
 73
  102
  0
VERTEX
  8
72OFGO3D01_WP__CONNECTOR__119
 10
0.0
 20
0.0
 30
0.0
 70
   128
 62
  9
 71
 -102
 72
 -93
 73
 -100
  0
VERTEX
  8
72OFGO3D01_WP__CONNECTOR__119
 10
0.0
 20
0.0
 30
0.0
 70
   128
 62
  9
 71
  101
 72
  99
 73
  100
  0
VERTEX
  8
72OFGO3D01_WP__CONNECTOR__119
 10
0.0
 20
0.0
 30
0.0
 70
   128
 62
  9
 71
 -100
 72
 -99
 73
 -101
  0
VERTEX
  8
72OFGO3D01_WP__CONNECTOR__119
 10
0.0
 20
0.0
 30
0.0
 70
   128
 62
  9
 71
  99
 72
  98
 73
  100
  0
VERTEX
  8
72OFGO3D01_WP__CONNECTOR__119
 10
0.0
 20
0.0
 30
0.0
 70
   128
 62
  9
 71
 -100
 72
 -98
 73
 -99
  0
VERTEX
  8
72OFGO3D01_WP__CONNECTOR__119
 10
0.0
 20
0.0
 30
0.0
 70
   128
 62
  9
 71
  98
 72
  96
 73
  100
  0
VERTEX
  8
72OFGO3D01_WP__CONNECTOR__119
 10
0.0
 20
0.0
 30
0.0
 70
   128
 62
  9
 71
 -100
 72
 -96
 73
 -98
  0
VERTEX
  8
72OFGO3D01_WP__CONNECTOR__119
 10
0.0
 20
0.0
 30
0.0
 70
   128
 62
  9
 71
  100
 72
  96
 73
  94
  0
VERTEX
  8
72OFGO3D01_WP__CONNECTOR__119
 10
0.0
 20
0.0
 30
0.0
 70
   128
 62
  9
 71
 -94
 72
 -96
 73
 -100
  0
VERTEX
  8
72OFGO3D01_WP__CONNECTOR__119
 10
0.0
 20
0.0
 30
0.0
 70
   128
 62
  9
 71
  100
 72
  94
 73
  93
  0
VERTEX
  8
72OFGO3D01_WP__CONNECTOR__119
 10
0.0
 20
0.0
 30
0.0
 70
   128
 62
  9
 71
 -93
 72
 -94
 73
 -100
  0
VERTEX
  8
72OFGO3D01_WP__CONNECTOR__119
 10
0.0
 20
0.0
 30
0.0
 70
   128
 62
  9
 71
  95
 72
  94
 73
  97
  0
VERTEX
  8
72OFGO3D01_WP__CONNECTOR__119
 10
0.0
 20
0.0
 30
0.0
 70
   128
 62
  9
 71
 -97
 72
 -94
 73
 -95
  0
VERTEX
  8
72OFGO3D01_WP__CONNECTOR__119
 10
0.0
 20
0.0
 30
0.0
 70
   128
 62
  9
 71
  93
 72
  91
 73
  102
  0
VERTEX
  8
72OFGO3D01_WP__CONNECTOR__119
 10
0.0
 20
0.0
 30
0.0
 70
   128
 62
  9
 71
 -102
 72
 -91
 73
 -93
  0
VERTEX
  8
72OFGO3D01_WP__CONNECTOR__119
 10
0.0
 20
0.0
 30
0.0
 70
   128
 62
  9
 71
  91
 72
  92
 73
  102
  0
VERTEX
  8
72OFGO3D01_WP__CONNECTOR__119
 10
0.0
 20
0.0
 30
0.0
 70
   128
 62
  9
 71
 -102
 72
 -92
 73
 -91
  0
VERTEX
  8
72OFGO3D01_WP__CONNECTOR__119
 10
0.0
 20
0.0
 30
0.0
 70
   128
 62
  9
 71
  92
 72
  90
 73
  40
  0
VERTEX
  8
72OFGO3D01_WP__CONNECTOR__119
 10
0.0
 20
0.0
 30
0.0
 70
   128
 62
  9
 71
 -40
 72
 -90
 73
 -92
  0
VERTEX
  8
72OFGO3D01_WP__CONNECTOR__119
 10
0.0
 20
0.0
 30
0.0
 70
   128
 62
  9
 71
  90
 72
  89
 73
  40
  0
VERTEX
  8
72OFGO3D01_WP__CONNECTOR__119
 10
0.0
 20
0.0
 30
0.0
 70
   128
 62
  9
 71
 -40
 72
 -89
 73
 -90
  0
VERTEX
  8
72OFGO3D01_WP__CONNECTOR__119
 10
0.0
 20
0.0
 30
0.0
 70
   128
 62
  9
 71
  87
 72
  67
 73
  89
  0
VERTEX
  8
72OFGO3D01_WP__CONNECTOR__119
 10
0.0
 20
0.0
 30
0.0
 70
   128
 62
  9
 71
 -89
 72
 -67
 73
 -87
  0
VERTEX
  8
72OFGO3D01_WP__CONNECTOR__119
 10
0.0
 20
0.0
 30
0.0
 70
   128
 62
  9
 71
  87
 72
  88
 73
  67
  0
VERTEX
  8
72OFGO3D01_WP__CONNECTOR__119
 10
0.0
 20
0.0
 30
0.0
 70
   128
 62
  9
 71
 -67
 72
 -88
 73
 -87
  0
VERTEX
  8
72OFGO3D01_WP__CONNECTOR__119
 10
0.0
 20
0.0
 30
0.0
 70
   128
 62
  9
 71
  67
 72
  88
 73
  69
  0
VERTEX
  8
72OFGO3D01_WP__CONNECTOR__119
 10
0.0
 20
0.0
 30
0.0
 70
   128
 62
  9
 71
 -69
 72
 -88
 73
 -67
  0
VERTEX
  8
72OFGO3D01_WP__CONNECTOR__119
 10
0.0
 20
0.0
 30
0.0
 70
   128
 62
  9
 71
  88
 72
  86
 73
  69
  0
VERTEX
  8
72OFGO3D01_WP__CONNECTOR__119
 10
0.0
 20
0.0
 30
0.0
 70
   128
 62
  9
 71
 -69
 72
 -86
 73
 -88
  0
VERTEX
  8
72OFGO3D01_WP__CONNECTOR__119
 10
0.0
 20
0.0
 30
0.0
 70
   128
 62
  9
 71
  83
 72
  71
 73
  85
  0
VERTEX
  8
72OFGO3D01_WP__CONNECTOR__119
 10
0.0
 20
0.0
 30
0.0
 70
   128
 62
  9
 71
 -85
 72
 -71
 73
 -83
  0
VERTEX
  8
72OFGO3D01_WP__CONNECTOR__119
 10
0.0
 20
0.0
 30
0.0
 70
   128
 62
  9
 71
  84
 72
  82
 73
  83
  0
VERTEX
  8
72OFGO3D01_WP__CONNECTOR__119
 10
0.0
 20
0.0
 30
0.0
 70
   128
 62
  9
 71
 -83
 72
 -82
 73
 -84
  0
VERTEX
  8
72OFGO3D01_WP__CONNECTOR__119
 10
0.0
 20
0.0
 30
0.0
 70
   128
 62
  9
 71
  82
 72
  81
 73
  83
  0
VERTEX
  8
72OFGO3D01_WP__CONNECTOR__119
 10
0.0
 20
0.0
 30
0.0
 70
   128
 62
  9
 71
 -83
 72
 -81
 73
 -82
  0
VERTEX
  8
72OFGO3D01_WP__CONNECTOR__119
 10
0.0
 20
0.0
 30
0.0
 70
   128
 62
  9
 71
  83
 72
  81
 73
  75
  0
VERTEX
  8
72OFGO3D01_WP__CONNECTOR__119
 10
0.0
 20
0.0
 30
0.0
 70
   128
 62
  9
 71
 -75
 72
 -81
 73
 -83
  0
VERTEX
  8
72OFGO3D01_WP__CONNECTOR__119
 10
0.0
 20
0.0
 30
0.0
 70
   128
 62
  9
 71
  83
 72
  75
 73
  73
  0
VERTEX
  8
72OFGO3D01_WP__CONNECTOR__119
 10
0.0
 20
0.0
 30
0.0
 70
   128
 62
  9
 71
 -73
 72
 -75
 73
 -83
  0
VERTEX
  8
72OFGO3D01_WP__CONNECTOR__119
 10
0.0
 20
0.0
 30
0.0
 70
   128
 62
  9
 71
  83
 72
  73
 73
  71
  0
VERTEX
  8
72OFGO3D01_WP__CONNECTOR__119
 10
0.0
 20
0.0
 30
0.0
 70
   128
 62
  9
 71
 -71
 72
 -73
 73
 -83
  0
VERTEX
  8
72OFGO3D01_WP__CONNECTOR__119
 10
0.0
 20
0.0
 30
0.0
 70
   128
 62
  9
 71
  80
 72
  77
 73
  79
  0
VERTEX
  8
72OFGO3D01_WP__CONNECTOR__119
 10
0.0
 20
0.0
 30
0.0
 70
   128
 62
  9
 71
 -79
 72
 -77
 73
 -80
  0
VERTEX
  8
72OFGO3D01_WP__CONNECTOR__119
 10
0.0
 20
0.0
 30
0.0
 70
   128
 62
  9
 71
  80
 72
  78
 73
  77
  0
VERTEX
  8
72OFGO3D01_WP__CONNECTOR__119
 10
0.0
 20
0.0
 30
0.0
 70
   128
 62
  9
 71
 -77
 72
 -78
 73
 -80
  0
VERTEX
  8
72OFGO3D01_WP__CONNECTOR__119
 10
0.0
 20
0.0
 30
0.0
 70
   128
 62
  9
 71
  77
 72
  75
 73
  79
  0
VERTEX
  8
72OFGO3D01_WP__CONNECTOR__119
 10
0.0
 20
0.0
 30
0.0
 70
   128
 62
  9
 71
 -79
 72
 -75
 73
 -77
  0
VERTEX
  8
72OFGO3D01_WP__CONNECTOR__119
 10
0.0
 20
0.0
 30
0.0
 70
   128
 62
  9
 71
  75
 72
  76
 73
  73
  0
VERTEX
  8
72OFGO3D01_WP__CONNECTOR__119
 10
0.0
 20
0.0
 30
0.0
 70
   128
 62
  9
 71
 -73
 72
 -76
 73
 -75
  0
VERTEX
  8
72OFGO3D01_WP__CONNECTOR__119
 10
0.0
 20
0.0
 30
0.0
 70
   128
 62
  9
 71
  76
 72
  74
 73
  73
  0
VERTEX
  8
72OFGO3D01_WP__CONNECTOR__119
 10
0.0
 20
0.0
 30
0.0
 70
   128
 62
  9
 71
 -73
 72
 -74
 73
 -76
  0
VERTEX
  8
72OFGO3D01_WP__CONNECTOR__119
 10
0.0
 20
0.0
 30
0.0
 70
   128
 62
  9
 71
  71
 72
  72
 73
  85
  0
VERTEX
  8
72OFGO3D01_WP__CONNECTOR__119
 10
0.0
 20
0.0
 30
0.0
 70
   128
 62
  9
 71
 -85
 72
 -72
 73
 -71
  0
VERTEX
  8
72OFGO3D01_WP__CONNECTOR__119
 10
0.0
 20
0.0
 30
0.0
 70
   128
 62
  9
 71
  72
 72
  70
 73
  85
  0
VERTEX
  8
72OFGO3D01_WP__CONNECTOR__119
 10
0.0
 20
0.0
 30
0.0
 70
   128
 62
  9
 71
 -85
 72
 -70
 73
 -72
  0
VERTEX
  8
72OFGO3D01_WP__CONNECTOR__119
 10
0.0
 20
0.0
 30
0.0
 70
   128
 62
  9
 71
  70
 72
  69
 73
  85
  0
VERTEX
  8
72OFGO3D01_WP__CONNECTOR__119
 10
0.0
 20
0.0
 30
0.0
 70
   128
 62
  9
 71
 -85
 72
 -69
 73
 -70
  0
VERTEX
  8
72OFGO3D01_WP__CONNECTOR__119
 10
0.0
 20
0.0
 30
0.0
 70
   128
 62
  9
 71
  89
 72
  67
 73
  41
  0
VERTEX
  8
72OFGO3D01_WP__CONNECTOR__119
 10
0.0
 20
0.0
 30
0.0
 70
   128
 62
  9
 71
 -41
 72
 -67
 73
 -89
  0
VERTEX
  8
72OFGO3D01_WP__CONNECTOR__119
 10
0.0
 20
0.0
 30
0.0
 70
   128
 62
  9
 71
  89
 72
  41
 73
  40
  0
VERTEX
  8
72OFGO3D01_WP__CONNECTOR__119
 10
0.0
 20
0.0
 30
0.0
 70
   128
 62
  9
 71
 -40
 72
 -41
 73
 -89
  0
VERTEX
  8
72OFGO3D01_WP__CONNECTOR__119
 10
0.0
 20
0.0
 30
0.0
 70
   128
 62
  9
 71
  66
 72
  41
 73
  68
  0
VERTEX
  8
72OFGO3D01_WP__CONNECTOR__119
 10
0.0
 20
0.0
 30
0.0
 70
   128
 62
  9
 71
 -68
 72
 -41
 73
 -66
  0
VERTEX
  8
72OFGO3D01_WP__CONNECTOR__119
 10
0.0
 20
0.0
 30
0.0
 70
   128
 62
  9
 71
  97
 72
  94
 73
  96
  0
VERTEX
  8
72OFGO3D01_WP__CONNECTOR__119
 10
0.0
 20
0.0
 30
0.0
 70
   128
 62
  9
 71
 -96
 72
 -94
 73
 -97
  0
VERTEX
  8
72OFGO3D01_WP__CONNECTOR__119
 10
0.0
 20
0.0
 30
0.0
 70
   128
 62
  9
 71
  79
 72
  75
 73
  81
  0
VERTEX
  8
72OFGO3D01_WP__CONNECTOR__119
 10
0.0
 20
0.0
 30
0.0
 70
   128
 62
  9
 71
 -81
 72
 -75
 73
 -79
  0
VERTEX
  8
72OFGO3D01_WP__CONNECTOR__119
 10
0.0
 20
0.0
 30
0.0
 70
   128
 62
  9
 71
  85
 72
  69
 73
  86
  0
VERTEX
  8
72OFGO3D01_WP__CONNECTOR__119
 10
0.0
 20
0.0
 30
0.0
 70
   128
 62
  9
 71
 -86
 72
 -69
 73
 -85
  0
VERTEX
  8
72OFGO3D01_WP__CONNECTOR__119
 10
0.0
 20
0.0
 30
0.0
 70
   128
 62
  9
 71
  68
 72
  41
 73
  67
  0
VERTEX
  8
72OFGO3D01_WP__CONNECTOR__119
 10
0.0
 20
0.0
 30
0.0
 70
   128
 62
  9
 71
 -67
 72
 -41
 73
 -68
  0
VERTEX
  8
72OFGO3D01_WP__CONNECTOR__119
 10
0.0
 20
0.0
 30
0.0
 70
   128
 62
  9
 71
  103
 72
  104
 73
  105
  0
VERTEX
  8
72OFGO3D01_WP__CONNECTOR__119
 10
0.0
 20
0.0
 30
0.0
 70
   128
 62
  9
 71
 -105
 72
 -104
 73
 -103
  0
VERTEX
  8
72OFGO3D01_WP__CONNECTOR__119
 10
0.0
 20
0.0
 30
0.0
 70
   128
 62
  9
 71
  105
 72
  104
 73
  106
  0
VERTEX
  8
72OFGO3D01_WP__CONNECTOR__119
 10
0.0
 20
0.0
 30
0.0
 70
   128
 62
  9
 71
 -106
 72
 -104
 73
 -105
  0
VERTEX
  8
72OFGO3D01_WP__CONNECTOR__119
 10
0.0
 20
0.0
 30
0.0
 70
   128
 62
  9
 71
  107
 72
  108
 73
  109
  0
VERTEX
  8
72OFGO3D01_WP__CONNECTOR__119
 10
0.0
 20
0.0
 30
0.0
 70
   128
 62
  9
 71
 -109
 72
 -108
 73
 -107
  0
VERTEX
  8
72OFGO3D01_WP__CONNECTOR__119
 10
0.0
 20
0.0
 30
0.0
 70
   128
 62
  9
 71
  108
 72
  110
 73
  109
  0
VERTEX
  8
72OFGO3D01_WP__CONNECTOR__119
 10
0.0
 20
0.0
 30
0.0
 70
   128
 62
  9
 71
 -109
 72
 -110
 73
 -108
  0
VERTEX
  8
72OFGO3D01_WP__CONNECTOR__119
 10
0.0
 20
0.0
 30
0.0
 70
   128
 62
  9
 71
  110
 72
  106
 73
  109
  0
VERTEX
  8
72OFGO3D01_WP__CONNECTOR__119
 10
0.0
 20
0.0
 30
0.0
 70
   128
 62
  9
 71
 -109
 72
 -106
 73
 -110
  0
VERTEX
  8
72OFGO3D01_WP__CONNECTOR__119
 10
0.0
 20
0.0
 30
0.0
 70
   128
 62
  9
 71
  109
 72
  106
 73
  104
  0
VERTEX
  8
72OFGO3D01_WP__CONNECTOR__119
 10
0.0
 20
0.0
 30
0.0
 70
   128
 62
  9
 71
 -104
 72
 -106
 73
 -109
  0
VERTEX
  8
72OFGO3D01_WP__CONNECTOR__119
 10
0.0
 20
0.0
 30
0.0
 70
   128
 62
  9
 71
  111
 72
  112
 73
  107
  0
VERTEX
  8
72OFGO3D01_WP__CONNECTOR__119
 10
0.0
 20
0.0
 30
0.0
 70
   128
 62
  9
 71
 -107
 72
 -112
 73
 -111
  0
VERTEX
  8
72OFGO3D01_WP__CONNECTOR__119
 10
0.0
 20
0.0
 30
0.0
 70
   128
 62
  9
 71
  112
 72
  108
 73
  107
  0
VERTEX
  8
72OFGO3D01_WP__CONNECTOR__119
 10
0.0
 20
0.0
 30
0.0
 70
   128
 62
  9
 71
 -107
 72
 -108
 73
 -112
  0
VERTEX
  8
72OFGO3D01_WP__CONNECTOR__119
 10
0.0
 20
0.0
 30
0.0
 70
   128
 62
  9
 71
  111
 72
  113
 73
  112
  0
VERTEX
  8
72OFGO3D01_WP__CONNECTOR__119
 10
0.0
 20
0.0
 30
0.0
 70
   128
 62
  9
 71
 -112
 72
 -113
 73
 -111
  0
VERTEX
  8
72OFGO3D01_WP__CONNECTOR__119
 10
0.0
 20
0.0
 30
0.0
 70
   128
 62
  9
 71
  112
 72
  113
 73
  114
  0
VERTEX
  8
72OFGO3D01_WP__CONNECTOR__119
 10
0.0
 20
0.0
 30
0.0
 70
   128
 62
  9
 71
 -114
 72
 -113
 73
 -112
  0
VERTEX
  8
72OFGO3D01_WP__CONNECTOR__119
 10
0.0
 20
0.0
 30
0.0
 70
   128
 62
  9
 71
  115
 72
  116
 73
  117
  0
VERTEX
  8
72OFGO3D01_WP__CONNECTOR__119
 10
0.0
 20
0.0
 30
0.0
 70
   128
 62
  9
 71
 -117
 72
 -116
 73
 -115
  0
VERTEX
  8
72OFGO3D01_WP__CONNECTOR__119
 10
0.0
 20
0.0
 30
0.0
 70
   128
 62
  9
 71
  116
 72
  118
 73
  117
  0
VERTEX
  8
72OFGO3D01_WP__CONNECTOR__119
 10
0.0
 20
0.0
 30
0.0
 70
   128
 62
  9
 71
 -117
 72
 -118
 73
 -116
  0
VERTEX
  8
72OFGO3D01_WP__CONNECTOR__119
 10
0.0
 20
0.0
 30
0.0
 70
   128
 62
  9
 71
  118
 72
  114
 73
  117
  0
VERTEX
  8
72OFGO3D01_WP__CONNECTOR__119
 10
0.0
 20
0.0
 30
0.0
 70
   128
 62
  9
 71
 -117
 72
 -114
 73
 -118
  0
VERTEX
  8
72OFGO3D01_WP__CONNECTOR__119
 10
0.0
 20
0.0
 30
0.0
 70
   128
 62
  9
 71
  117
 72
  114
 73
  113
  0
VERTEX
  8
72OFGO3D01_WP__CONNECTOR__119
 10
0.0
 20
0.0
 30
0.0
 70
   128
 62
  9
 71
 -113
 72
 -114
 73
 -117
  0
VERTEX
  8
72OFGO3D01_WP__CONNECTOR__119
 10
0.0
 20
0.0
 30
0.0
 70
   128
 62
  9
 71
  119
 72
  120
 73
  115
  0
VERTEX
  8
72OFGO3D01_WP__CONNECTOR__119
 10
0.0
 20
0.0
 30
0.0
 70
   128
 62
  9
 71
 -115
 72
 -120
 73
 -119
  0
VERTEX
  8
72OFGO3D01_WP__CONNECTOR__119
 10
0.0
 20
0.0
 30
0.0
 70
   128
 62
  9
 71
  120
 72
  116
 73
  115
  0
VERTEX
  8
72OFGO3D01_WP__CONNECTOR__119
 10
0.0
 20
0.0
 30
0.0
 70
   128
 62
  9
 71
 -115
 72
 -116
 73
 -120
  0
VERTEX
  8
72OFGO3D01_WP__CONNECTOR__119
 10
0.0
 20
0.0
 30
0.0
 70
   128
 62
  9
 71
  119
 72
  121
 73
  120
  0
VERTEX
  8
72OFGO3D01_WP__CONNECTOR__119
 10
0.0
 20
0.0
 30
0.0
 70
   128
 62
  9
 71
 -120
 72
 -121
 73
 -119
  0
VERTEX
  8
72OFGO3D01_WP__CONNECTOR__119
 10
0.0
 20
0.0
 30
0.0
 70
   128
 62
  9
 71
  120
 72
  121
 73
  122
  0
VERTEX
  8
72OFGO3D01_WP__CONNECTOR__119
 10
0.0
 20
0.0
 30
0.0
 70
   128
 62
  9
 71
 -122
 72
 -121
 73
 -120
  0
VERTEX
  8
72OFGO3D01_WP__CONNECTOR__119
 10
0.0
 20
0.0
 30
0.0
 70
   128
 62
  9
 71
  123
 72
  124
 73
  125
  0
VERTEX
  8
72OFGO3D01_WP__CONNECTOR__119
 10
0.0
 20
0.0
 30
0.0
 70
   128
 62
  9
 71
 -125
 72
 -124
 73
 -123
  0
VERTEX
  8
72OFGO3D01_WP__CONNECTOR__119
 10
0.0
 20
0.0
 30
0.0
 70
   128
 62
  9
 71
  124
 72
  126
 73
  125
  0
VERTEX
  8
72OFGO3D01_WP__CONNECTOR__119
 10
0.0
 20
0.0
 30
0.0
 70
   128
 62
  9
 71
 -125
 72
 -126
 73
 -124
  0
VERTEX
  8
72OFGO3D01_WP__CONNECTOR__119
 10
0.0
 20
0.0
 30
0.0
 70
   128
 62
  9
 71
  126
 72
  122
 73
  125
  0
VERTEX
  8
72OFGO3D01_WP__CONNECTOR__119
 10
0.0
 20
0.0
 30
0.0
 70
   128
 62
  9
 71
 -125
 72
 -122
 73
 -126
  0
VERTEX
  8
72OFGO3D01_WP__CONNECTOR__119
 10
0.0
 20
0.0
 30
0.0
 70
   128
 62
  9
 71
  125
 72
  122
 73
  121
  0
VERTEX
  8
72OFGO3D01_WP__CONNECTOR__119
 10
0.0
 20
0.0
 30
0.0
 70
   128
 62
  9
 71
 -121
 72
 -122
 73
 -125
  0
VERTEX
  8
72OFGO3D01_WP__CONNECTOR__119
 10
0.0
 20
0.0
 30
0.0
 70
   128
 62
  9
 71
  123
 72
  127
 73
  124
  0
VERTEX
  8
72OFGO3D01_WP__CONNECTOR__119
 10
0.0
 20
0.0
 30
0.0
 70
   128
 62
  9
 71
 -124
 72
 -127
 73
 -123
  0
VERTEX
  8
72OFGO3D01_WP__CONNECTOR__119
 10
0.0
 20
0.0
 30
0.0
 70
   128
 62
  9
 71
  127
 72
  128
 73
  124
  0
VERTEX
  8
72OFGO3D01_WP__CONNECTOR__119
 10
0.0
 20
0.0
 30
0.0
 70
   128
 62
  9
 71
 -124
 72
 -128
 73
 -127
  0
VERTEX
  8
72OFGO3D01_WP__CONNECTOR__119
 10
0.0
 20
0.0
 30
0.0
 70
   128
 62
  9
 71
  127
 72
  129
 73
  128
  0
VERTEX
  8
72OFGO3D01_WP__CONNECTOR__119
 10
0.0
 20
0.0
 30
0.0
 70
   128
 62
  9
 71
 -128
 72
 -129
 73
 -127
  0
VERTEX
  8
72OFGO3D01_WP__CONNECTOR__119
 10
0.0
 20
0.0
 30
0.0
 70
   128
 62
  9
 71
  128
 72
  129
 73
  130
  0
VERTEX
  8
72OFGO3D01_WP__CONNECTOR__119
 10
0.0
 20
0.0
 30
0.0
 70
   128
 62
  9
 71
 -130
 72
 -129
 73
 -128
  0
VERTEX
  8
72OFGO3D01_WP__CONNECTOR__119
 10
0.0
 20
0.0
 30
0.0
 70
   128
 62
  9
 71
  131
 72
  132
 73
  133
  0
VERTEX
  8
72OFGO3D01_WP__CONNECTOR__119
 10
0.0
 20
0.0
 30
0.0
 70
   128
 62
  9
 71
 -133
 72
 -132
 73
 -131
  0
VERTEX
  8
72OFGO3D01_WP__CONNECTOR__119
 10
0.0
 20
0.0
 30
0.0
 70
   128
 62
  9
 71
  132
 72
  134
 73
  133
  0
VERTEX
  8
72OFGO3D01_WP__CONNECTOR__119
 10
0.0
 20
0.0
 30
0.0
 70
   128
 62
  9
 71
 -133
 72
 -134
 73
 -132
  0
VERTEX
  8
72OFGO3D01_WP__CONNECTOR__119
 10
0.0
 20
0.0
 30
0.0
 70
   128
 62
  9
 71
  134
 72
  130
 73
  133
  0
VERTEX
  8
72OFGO3D01_WP__CONNECTOR__119
 10
0.0
 20
0.0
 30
0.0
 70
   128
 62
  9
 71
 -133
 72
 -130
 73
 -134
  0
VERTEX
  8
72OFGO3D01_WP__CONNECTOR__119
 10
0.0
 20
0.0
 30
0.0
 70
   128
 62
  9
 71
  133
 72
  130
 73
  129
  0
VERTEX
  8
72OFGO3D01_WP__CONNECTOR__119
 10
0.0
 20
0.0
 30
0.0
 70
   128
 62
  9
 71
 -129
 72
 -130
 73
 -133
  0
VERTEX
  8
72OFGO3D01_WP__CONNECTOR__119
 10
0.0
 20
0.0
 30
0.0
 70
   128
 62
  9
 71
  135
 72
  136
 73
  131
  0
VERTEX
  8
72OFGO3D01_WP__CONNECTOR__119
 10
0.0
 20
0.0
 30
0.0
 70
   128
 62
  9
 71
 -131
 72
 -136
 73
 -135
  0
VERTEX
  8
72OFGO3D01_WP__CONNECTOR__119
 10
0.0
 20
0.0
 30
0.0
 70
   128
 62
  9
 71
  136
 72
  132
 73
  131
  0
VERTEX
  8
72OFGO3D01_WP__CONNECTOR__119
 10
0.0
 20
0.0
 30
0.0
 70
   128
 62
  9
 71
 -131
 72
 -132
 73
 -136
  0
VERTEX
  8
72OFGO3D01_WP__CONNECTOR__119
 10
0.0
 20
0.0
 30
0.0
 70
   128
 62
  9
 71
  135
 72
  137
 73
  136
  0
VERTEX
  8
72OFGO3D01_WP__CONNECTOR__119
 10
0.0
 20
0.0
 30
0.0
 70
   128
 62
  9
 71
 -136
 72
 -137
 73
 -135
  0
VERTEX
  8
72OFGO3D01_WP__CONNECTOR__119
 10
0.0
 20
0.0
 30
0.0
 70
   128
 62
  9
 71
  136
 72
  137
 73
  138
  0
VERTEX
  8
72OFGO3D01_WP__CONNECTOR__119
 10
0.0
 20
0.0
 30
0.0
 70
   128
 62
  9
 71
 -138
 72
 -137
 73
 -136
  0
VERTEX
  8
72OFGO3D01_WP__CONNECTOR__119
 10
0.0
 20
0.0
 30
0.0
 70
   128
 62
  9
 71
  139
 72
  140
 73
  141
  0
VERTEX
  8
72OFGO3D01_WP__CONNECTOR__119
 10
0.0
 20
0.0
 30
0.0
 70
   128
 62
  9
 71
 -141
 72
 -140
 73
 -139
  0
VERTEX
  8
72OFGO3D01_WP__CONNECTOR__119
 10
0.0
 20
0.0
 30
0.0
 70
   128
 62
  9
 71
  140
 72
  142
 73
  141
  0
VERTEX
  8
72OFGO3D01_WP__CONNECTOR__119
 10
0.0
 20
0.0
 30
0.0
 70
   128
 62
  9
 71
 -141
 72
 -142
 73
 -140
  0
VERTEX
  8
72OFGO3D01_WP__CONNECTOR__119
 10
0.0
 20
0.0
 30
0.0
 70
   128
 62
  9
 71
  142
 72
  138
 73
  141
  0
VERTEX
  8
72OFGO3D01_WP__CONNECTOR__119
 10
0.0
 20
0.0
 30
0.0
 70
   128
 62
  9
 71
 -141
 72
 -138
 73
 -142
  0
VERTEX
  8
72OFGO3D01_WP__CONNECTOR__119
 10
0.0
 20
0.0
 30
0.0
 70
   128
 62
  9
 71
  141
 72
  138
 73
  137
  0
VERTEX
  8
72OFGO3D01_WP__CONNECTOR__119
 10
0.0
 20
0.0
 30
0.0
 70
   128
 62
  9
 71
 -137
 72
 -138
 73
 -141
  0
VERTEX
  8
72OFGO3D01_WP__CONNECTOR__119
 10
0.0
 20
0.0
 30
0.0
 70
   128
 62
  9
 71
  143
 72
  144
 73
  139
  0
VERTEX
  8
72OFGO3D01_WP__CONNECTOR__119
 10
0.0
 20
0.0
 30
0.0
 70
   128
 62
  9
 71
 -139
 72
 -144
 73
 -143
  0
VERTEX
  8
72OFGO3D01_WP__CONNECTOR__119
 10
0.0
 20
0.0
 30
0.0
 70
   128
 62
  9
 71
  144
 72
  140
 73
  139
  0
VERTEX
  8
72OFGO3D01_WP__CONNECTOR__119
 10
0.0
 20
0.0
 30
0.0
 70
   128
 62
  9
 71
 -139
 72
 -140
 73
 -144
  0
VERTEX
  8
72OFGO3D01_WP__CONNECTOR__119
 10
0.0
 20
0.0
 30
0.0
 70
   128
 62
  9
 71
  143
 72
  145
 73
  144
  0
VERTEX
  8
72OFGO3D01_WP__CONNECTOR__119
 10
0.0
 20
0.0
 30
0.0
 70
   128
 62
  9
 71
 -144
 72
 -145
 73
 -143
  0
VERTEX
  8
72OFGO3D01_WP__CONNECTOR__119
 10
0.0
 20
0.0
 30
0.0
 70
   128
 62
  9
 71
  144
 72
  145
 73
  146
  0
VERTEX
  8
72OFGO3D01_WP__CONNECTOR__119
 10
0.0
 20
0.0
 30
0.0
 70
   128
 62
  9
 71
 -146
 72
 -145
 73
 -144
  0
VERTEX
  8
72OFGO3D01_WP__CONNECTOR__119
 10
0.0
 20
0.0
 30
0.0
 70
   128
 62
  9
 71
  147
 72
  148
 73
  149
  0
VERTEX
  8
72OFGO3D01_WP__CONNECTOR__119
 10
0.0
 20
0.0
 30
0.0
 70
   128
 62
  9
 71
 -149
 72
 -148
 73
 -147
  0
VERTEX
  8
72OFGO3D01_WP__CONNECTOR__119
 10
0.0
 20
0.0
 30
0.0
 70
   128
 62
  9
 71
  148
 72
  150
 73
  149
  0
VERTEX
  8
72OFGO3D01_WP__CONNECTOR__119
 10
0.0
 20
0.0
 30
0.0
 70
   128
 62
  9
 71
 -149
 72
 -150
 73
 -148
  0
VERTEX
  8
72OFGO3D01_WP__CONNECTOR__119
 10
0.0
 20
0.0
 30
0.0
 70
   128
 62
  9
 71
  150
 72
  146
 73
  149
  0
VERTEX
  8
72OFGO3D01_WP__CONNECTOR__119
 10
0.0
 20
0.0
 30
0.0
 70
   128
 62
  9
 71
 -149
 72
 -146
 73
 -150
  0
VERTEX
  8
72OFGO3D01_WP__CONNECTOR__119
 10
0.0
 20
0.0
 30
0.0
 70
   128
 62
  9
 71
  149
 72
  146
 73
  145
  0
VERTEX
  8
72OFGO3D01_WP__CONNECTOR__119
 10
0.0
 20
0.0
 30
0.0
 70
   128
 62
  9
 71
 -145
 72
 -146
 73
 -149
  0
VERTEX
  8
72OFGO3D01_WP__CONNECTOR__119
 10
0.0
 20
0.0
 30
0.0
 70
   128
 62
  9
 71
  147
 72
  151
 73
  148
  0
VERTEX
  8
72OFGO3D01_WP__CONNECTOR__119
 10
0.0
 20
0.0
 30
0.0
 70
   128
 62
  9
 71
 -148
 72
 -151
 73
 -147
  0
VERTEX
  8
72OFGO3D01_WP__CONNECTOR__119
 10
0.0
 20
0.0
 30
0.0
 70
   128
 62
  9
 71
  151
 72
  152
 73
  148
  0
VERTEX
  8
72OFGO3D01_WP__CONNECTOR__119
 10
0.0
 20
0.0
 30
0.0
 70
   128
 62
  9
 71
 -148
 72
 -152
 73
 -151
  0
VERTEX
  8
72OFGO3D01_WP__CONNECTOR__119
 10
0.0
 20
0.0
 30
0.0
 70
   128
 62
  9
 71
  151
 72
  153
 73
  152
  0
VERTEX
  8
72OFGO3D01_WP__CONNECTOR__119
 10
0.0
 20
0.0
 30
0.0
 70
   128
 62
  9
 71
 -152
 72
 -153
 73
 -151
  0
VERTEX
  8
72OFGO3D01_WP__CONNECTOR__119
 10
0.0
 20
0.0
 30
0.0
 70
   128
 62
  9
 71
  152
 72
  153
 73
  154
  0
VERTEX
  8
72OFGO3D01_WP__CONNECTOR__119
 10
0.0
 20
0.0
 30
0.0
 70
   128
 62
  9
 71
 -154
 72
 -153
 73
 -152
  0
VERTEX
  8
72OFGO3D01_WP__CONNECTOR__119
 10
0.0
 20
0.0
 30
0.0
 70
   128
 62
  9
 71
  155
 72
  156
 73
  157
  0
VERTEX
  8
72OFGO3D01_WP__CONNECTOR__119
 10
0.0
 20
0.0
 30
0.0
 70
   128
 62
  9
 71
 -157
 72
 -156
 73
 -155
  0
VERTEX
  8
72OFGO3D01_WP__CONNECTOR__119
 10
0.0
 20
0.0
 30
0.0
 70
   128
 62
  9
 71
  156
 72
  158
 73
  157
  0
VERTEX
  8
72OFGO3D01_WP__CONNECTOR__119
 10
0.0
 20
0.0
 30
0.0
 70
   128
 62
  9
 71
 -157
 72
 -158
 73
 -156
  0
VERTEX
  8
72OFGO3D01_WP__CONNECTOR__119
 10
0.0
 20
0.0
 30
0.0
 70
   128
 62
  9
 71
  158
 72
  154
 73
  157
  0
VERTEX
  8
72OFGO3D01_WP__CONNECTOR__119
 10
0.0
 20
0.0
 30
0.0
 70
   128
 62
  9
 71
 -157
 72
 -154
 73
 -158
  0
VERTEX
  8
72OFGO3D01_WP__CONNECTOR__119
 10
0.0
 20
0.0
 30
0.0
 70
   128
 62
  9
 71
  157
 72
  154
 73
  153
  0
VERTEX
  8
72OFGO3D01_WP__CONNECTOR__119
 10
0.0
 20
0.0
 30
0.0
 70
   128
 62
  9
 71
 -153
 72
 -154
 73
 -157
  0
VERTEX
  8
72OFGO3D01_WP__CONNECTOR__119
 10
0.0
 20
0.0
 30
0.0
 70
   128
 62
  9
 71
  159
 72
  160
 73
  155
  0
VERTEX
  8
72OFGO3D01_WP__CONNECTOR__119
 10
0.0
 20
0.0
 30
0.0
 70
   128
 62
  9
 71
 -155
 72
 -160
 73
 -159
  0
VERTEX
  8
72OFGO3D01_WP__CONNECTOR__119
 10
0.0
 20
0.0
 30
0.0
 70
   128
 62
  9
 71
  160
 72
  156
 73
  155
  0
VERTEX
  8
72OFGO3D01_WP__CONNECTOR__119
 10
0.0
 20
0.0
 30
0.0
 70
   128
 62
  9
 71
 -155
 72
 -156
 73
 -160
  0
VERTEX
  8
72OFGO3D01_WP__CONNECTOR__119
 10
0.0
 20
0.0
 30
0.0
 70
   128
 62
  9
 71
  159
 72
  161
 73
  160
  0
VERTEX
  8
72OFGO3D01_WP__CONNECTOR__119
 10
0.0
 20
0.0
 30
0.0
 70
   128
 62
  9
 71
 -160
 72
 -161
 73
 -159
  0
VERTEX
  8
72OFGO3D01_WP__CONNECTOR__119
 10
0.0
 20
0.0
 30
0.0
 70
   128
 62
  9
 71
  160
 72
  161
 73
  162
  0
VERTEX
  8
72OFGO3D01_WP__CONNECTOR__119
 10
0.0
 20
0.0
 30
0.0
 70
   128
 62
  9
 71
 -162
 72
 -161
 73
 -160
  0
VERTEX
  8
72OFGO3D01_WP__CONNECTOR__119
 10
0.0
 20
0.0
 30
0.0
 70
   128
 62
  9
 71
  163
 72
  164
 73
  165
  0
VERTEX
  8
72OFGO3D01_WP__CONNECTOR__119
 10
0.0
 20
0.0
 30
0.0
 70
   128
 62
  9
 71
 -165
 72
 -164
 73
 -163
  0
VERTEX
  8
72OFGO3D01_WP__CONNECTOR__119
 10
0.0
 20
0.0
 30
0.0
 70
   128
 62
  9
 71
  164
 72
  166
 73
  165
  0
VERTEX
  8
72OFGO3D01_WP__CONNECTOR__119
 10
0.0
 20
0.0
 30
0.0
 70
   128
 62
  9
 71
 -165
 72
 -166
 73
 -164
  0
VERTEX
  8
72OFGO3D01_WP__CONNECTOR__119
 10
0.0
 20
0.0
 30
0.0
 70
   128
 62
  9
 71
  166
 72
  162
 73
  165
  0
VERTEX
  8
72OFGO3D01_WP__CONNECTOR__119
 10
0.0
 20
0.0
 30
0.0
 70
   128
 62
  9
 71
 -165
 72
 -162
 73
 -166
  0
VERTEX
  8
72OFGO3D01_WP__CONNECTOR__119
 10
0.0
 20
0.0
 30
0.0
 70
   128
 62
  9
 71
  165
 72
  162
 73
  161
  0
VERTEX
  8
72OFGO3D01_WP__CONNECTOR__119
 10
0.0
 20
0.0
 30
0.0
 70
   128
 62
  9
 71
 -161
 72
 -162
 73
 -165
  0
VERTEX
  8
72OFGO3D01_WP__CONNECTOR__119
 10
0.0
 20
0.0
 30
0.0
 70
   128
 62
  9
 71
  163
 72
  167
 73
  164
  0
VERTEX
  8
72OFGO3D01_WP__CONNECTOR__119
 10
0.0
 20
0.0
 30
0.0
 70
   128
 62
  9
 71
 -164
 72
 -167
 73
 -163
  0
VERTEX
  8
72OFGO3D01_WP__CONNECTOR__119
 10
0.0
 20
0.0
 30
0.0
 70
   128
 62
  9
 71
  167
 72
  168
 73
  164
  0
VERTEX
  8
72OFGO3D01_WP__CONNECTOR__119
 10
0.0
 20
0.0
 30
0.0
 70
   128
 62
  9
 71
 -164
 72
 -168
 73
 -167
  0
VERTEX
  8
72OFGO3D01_WP__CONNECTOR__119
 10
0.0
 20
0.0
 30
0.0
 70
   128
 62
  9
 71
  167
 72
  169
 73
  168
  0
VERTEX
  8
72OFGO3D01_WP__CONNECTOR__119
 10
0.0
 20
0.0
 30
0.0
 70
   128
 62
  9
 71
 -168
 72
 -169
 73
 -167
  0
VERTEX
  8
72OFGO3D01_WP__CONNECTOR__119
 10
0.0
 20
0.0
 30
0.0
 70
   128
 62
  9
 71
  168
 72
  169
 73
  170
  0
VERTEX
  8
72OFGO3D01_WP__CONNECTOR__119
 10
0.0
 20
0.0
 30
0.0
 70
   128
 62
  9
 71
 -170
 72
 -169
 73
 -168
  0
VERTEX
  8
72OFGO3D01_WP__CONNECTOR__119
 10
0.0
 20
0.0
 30
0.0
 70
   128
 62
  9
 71
  171
 72
  172
 73
  173
  0
VERTEX
  8
72OFGO3D01_WP__CONNECTOR__119
 10
0.0
 20
0.0
 30
0.0
 70
   128
 62
  9
 71
 -173
 72
 -172
 73
 -171
  0
VERTEX
  8
72OFGO3D01_WP__CONNECTOR__119
 10
0.0
 20
0.0
 30
0.0
 70
   128
 62
  9
 71
  172
 72
  174
 73
  173
  0
VERTEX
  8
72OFGO3D01_WP__CONNECTOR__119
 10
0.0
 20
0.0
 30
0.0
 70
   128
 62
  9
 71
 -173
 72
 -174
 73
 -172
  0
VERTEX
  8
72OFGO3D01_WP__CONNECTOR__119
 10
0.0
 20
0.0
 30
0.0
 70
   128
 62
  9
 71
  174
 72
  170
 73
  173
  0
VERTEX
  8
72OFGO3D01_WP__CONNECTOR__119
 10
0.0
 20
0.0
 30
0.0
 70
   128
 62
  9
 71
 -173
 72
 -170
 73
 -174
  0
VERTEX
  8
72OFGO3D01_WP__CONNECTOR__119
 10
0.0
 20
0.0
 30
0.0
 70
   128
 62
  9
 71
  173
 72
  170
 73
  169
  0
VERTEX
  8
72OFGO3D01_WP__CONNECTOR__119
 10
0.0
 20
0.0
 30
0.0
 70
   128
 62
  9
 71
 -169
 72
 -170
 73
 -173
  0
VERTEX
  8
72OFGO3D01_WP__CONNECTOR__119
 10
0.0
 20
0.0
 30
0.0
 70
   128
 62
  9
 71
  175
 72
  176
 73
  171
  0
VERTEX
  8
72OFGO3D01_WP__CONNECTOR__119
 10
0.0
 20
0.0
 30
0.0
 70
   128
 62
  9
 71
 -171
 72
 -176
 73
 -175
  0
VERTEX
  8
72OFGO3D01_WP__CONNECTOR__119
 10
0.0
 20
0.0
 30
0.0
 70
   128
 62
  9
 71
  176
 72
  172
 73
  171
  0
VERTEX
  8
72OFGO3D01_WP__CONNECTOR__119
 10
0.0
 20
0.0
 30
0.0
 70
   128
 62
  9
 71
 -171
 72
 -172
 73
 -176
  0
VERTEX
  8
72OFGO3D01_WP__CONNECTOR__119
 10
0.0
 20
0.0
 30
0.0
 70
   128
 62
  9
 71
  175
 72
  177
 73
  176
  0
VERTEX
  8
72OFGO3D01_WP__CONNECTOR__119
 10
0.0
 20
0.0
 30
0.0
 70
   128
 62
  9
 71
 -176
 72
 -177
 73
 -175
  0
VERTEX
  8
72OFGO3D01_WP__CONNECTOR__119
 10
0.0
 20
0.0
 30
0.0
 70
   128
 62
  9
 71
  176
 72
  177
 73
  178
  0
VERTEX
  8
72OFGO3D01_WP__CONNECTOR__119
 10
0.0
 20
0.0
 30
0.0
 70
   128
 62
  9
 71
 -178
 72
 -177
 73
 -176
  0
VERTEX
  8
72OFGO3D01_WP__CONNECTOR__119
 10
0.0
 20
0.0
 30
0.0
 70
   128
 62
  9
 71
  179
 72
  180
 73
  181
  0
VERTEX
  8
72OFGO3D01_WP__CONNECTOR__119
 10
0.0
 20
0.0
 30
0.0
 70
   128
 62
  9
 71
 -181
 72
 -180
 73
 -179
  0
VERTEX
  8
72OFGO3D01_WP__CONNECTOR__119
 10
0.0
 20
0.0
 30
0.0
 70
   128
 62
  9
 71
  180
 72
  182
 73
  181
  0
VERTEX
  8
72OFGO3D01_WP__CONNECTOR__119
 10
0.0
 20
0.0
 30
0.0
 70
   128
 62
  9
 71
 -181
 72
 -182
 73
 -180
  0
VERTEX
  8
72OFGO3D01_WP__CONNECTOR__119
 10
0.0
 20
0.0
 30
0.0
 70
   128
 62
  9
 71
  182
 72
  178
 73
  181
  0
VERTEX
  8
72OFGO3D01_WP__CONNECTOR__119
 10
0.0
 20
0.0
 30
0.0
 70
   128
 62
  9
 71
 -181
 72
 -178
 73
 -182
  0
VERTEX
  8
72OFGO3D01_WP__CONNECTOR__119
 10
0.0
 20
0.0
 30
0.0
 70
   128
 62
  9
 71
  181
 72
  178
 73
  177
  0
VERTEX
  8
72OFGO3D01_WP__CONNECTOR__119
 10
0.0
 20
0.0
 30
0.0
 70
   128
 62
  9
 71
 -177
 72
 -178
 73
 -181
  0
VERTEX
  8
72OFGO3D01_WP__CONNECTOR__119
 10
0.0
 20
0.0
 30
0.0
 70
   128
 62
  9
 71
  179
 72
  103
 73
  180
  0
VERTEX
  8
72OFGO3D01_WP__CONNECTOR__119
 10
0.0
 20
0.0
 30
0.0
 70
   128
 62
  9
 71
 -180
 72
 -103
 73
 -179
  0
VERTEX
  8
72OFGO3D01_WP__CONNECTOR__119
 10
0.0
 20
0.0
 30
0.0
 70
   128
 62
  9
 71
  103
 72
  105
 73
  180
  0
VERTEX
  8
72OFGO3D01_WP__CONNECTOR__119
 10
0.0
 20
0.0
 30
0.0
 70
   128
 62
  9
 71
 -180
 72
 -105
 73
 -103
  0
VERTEX
  8
72OFGO3D01_WP__CONNECTOR__119
 10
0.0
 20
0.0
 30
0.0
 70
   128
 62
  9
 71
  109
 72
  103
 73
  107
  0
VERTEX
  8
72OFGO3D01_WP__CONNECTOR__119
 10
0.0
 20
0.0
 30
0.0
 70
   128
 62
  9
 71
 -107
 72
 -103
 73
 -109
  0
VERTEX
  8
72OFGO3D01_WP__CONNECTOR__119
 10
0.0
 20
0.0
 30
0.0
 70
   128
 62
  9
 71
  109
 72
  104
 73
  103
  0
VERTEX
  8
72OFGO3D01_WP__CONNECTOR__119
 10
0.0
 20
0.0
 30
0.0
 70
   128
 62
  9
 71
 -103
 72
 -104
 73
 -109
  0
VERTEX
  8
72OFGO3D01_WP__CONNECTOR__119
 10
0.0
 20
0.0
 30
0.0
 70
   128
 62
  9
 71
  103
 72
  179
 73
  107
  0
VERTEX
  8
72OFGO3D01_WP__CONNECTOR__119
 10
0.0
 20
0.0
 30
0.0
 70
   128
 62
  9
 71
 -107
 72
 -179
 73
 -103
  0
VERTEX
  8
72OFGO3D01_WP__CONNECTOR__119
 10
0.0
 20
0.0
 30
0.0
 70
   128
 62
  9
 71
  181
 72
  177
 73
  179
  0
VERTEX
  8
72OFGO3D01_WP__CONNECTOR__119
 10
0.0
 20
0.0
 30
0.0
 70
   128
 62
  9
 71
 -179
 72
 -177
 73
 -181
  0
VERTEX
  8
72OFGO3D01_WP__CONNECTOR__119
 10
0.0
 20
0.0
 30
0.0
 70
   128
 62
  9
 71
  177
 72
  175
 73
  179
  0
VERTEX
  8
72OFGO3D01_WP__CONNECTOR__119
 10
0.0
 20
0.0
 30
0.0
 70
   128
 62
  9
 71
 -179
 72
 -175
 73
 -177
  0
VERTEX
  8
72OFGO3D01_WP__CONNECTOR__119
 10
0.0
 20
0.0
 30
0.0
 70
   128
 62
  9
 71
  179
 72
  175
 73
  107
  0
VERTEX
  8
72OFGO3D01_WP__CONNECTOR__119
 10
0.0
 20
0.0
 30
0.0
 70
   128
 62
  9
 71
 -107
 72
 -175
 73
 -179
  0
VERTEX
  8
72OFGO3D01_WP__CONNECTOR__119
 10
0.0
 20
0.0
 30
0.0
 70
   128
 62
  9
 71
  173
 72
  115
 73
  171
  0
VERTEX
  8
72OFGO3D01_WP__CONNECTOR__119
 10
0.0
 20
0.0
 30
0.0
 70
   128
 62
  9
 71
 -171
 72
 -115
 73
 -173
  0
VERTEX
  8
72OFGO3D01_WP__CONNECTOR__119
 10
0.0
 20
0.0
 30
0.0
 70
   128
 62
  9
 71
  173
 72
  169
 73
  115
  0
VERTEX
  8
72OFGO3D01_WP__CONNECTOR__119
 10
0.0
 20
0.0
 30
0.0
 70
   128
 62
  9
 71
 -115
 72
 -169
 73
 -173
  0
VERTEX
  8
72OFGO3D01_WP__CONNECTOR__119
 10
0.0
 20
0.0
 30
0.0
 70
   128
 62
  9
 71
  167
 72
  123
 73
  169
  0
VERTEX
  8
72OFGO3D01_WP__CONNECTOR__119
 10
0.0
 20
0.0
 30
0.0
 70
   128
 62
  9
 71
 -169
 72
 -123
 73
 -167
  0
VERTEX
  8
72OFGO3D01_WP__CONNECTOR__119
 10
0.0
 20
0.0
 30
0.0
 70
   128
 62
  9
 71
  167
 72
  163
 73
  123
  0
VERTEX
  8
72OFGO3D01_WP__CONNECTOR__119
 10
0.0
 20
0.0
 30
0.0
 70
   128
 62
  9
 71
 -123
 72
 -163
 73
 -167
  0
VERTEX
  8
72OFGO3D01_WP__CONNECTOR__119
 10
0.0
 20
0.0
 30
0.0
 70
   128
 62
  9
 71
  123
 72
  163
 73
  127
  0
VERTEX
  8
72OFGO3D01_WP__CONNECTOR__119
 10
0.0
 20
0.0
 30
0.0
 70
   128
 62
  9
 71
 -127
 72
 -163
 73
 -123
  0
VERTEX
  8
72OFGO3D01_WP__CONNECTOR__119
 10
0.0
 20
0.0
 30
0.0
 70
   128
 62
  9
 71
  161
 72
  135
 73
  165
  0
VERTEX
  8
72OFGO3D01_WP__CONNECTOR__119
 10
0.0
 20
0.0
 30
0.0
 70
   128
 62
  9
 71
 -165
 72
 -135
 73
 -161
  0
VERTEX
  8
72OFGO3D01_WP__CONNECTOR__119
 10
0.0
 20
0.0
 30
0.0
 70
   128
 62
  9
 71
  135
 72
  161
 73
  139
  0
VERTEX
  8
72OFGO3D01_WP__CONNECTOR__119
 10
0.0
 20
0.0
 30
0.0
 70
   128
 62
  9
 71
 -139
 72
 -161
 73
 -135
  0
VERTEX
  8
72OFGO3D01_WP__CONNECTOR__119
 10
0.0
 20
0.0
 30
0.0
 70
   128
 62
  9
 71
  135
 72
  139
 73
  141
  0
VERTEX
  8
72OFGO3D01_WP__CONNECTOR__119
 10
0.0
 20
0.0
 30
0.0
 70
   128
 62
  9
 71
 -141
 72
 -139
 73
 -135
  0
VERTEX
  8
72OFGO3D01_WP__CONNECTOR__119
 10
0.0
 20
0.0
 30
0.0
 70
   128
 62
  9
 71
  135
 72
  141
 73
  137
  0
VERTEX
  8
72OFGO3D01_WP__CONNECTOR__119
 10
0.0
 20
0.0
 30
0.0
 70
   128
 62
  9
 71
 -137
 72
 -141
 73
 -135
  0
VERTEX
  8
72OFGO3D01_WP__CONNECTOR__119
 10
0.0
 20
0.0
 30
0.0
 70
   128
 62
  9
 71
  155
 72
  151
 73
  159
  0
VERTEX
  8
72OFGO3D01_WP__CONNECTOR__119
 10
0.0
 20
0.0
 30
0.0
 70
   128
 62
  9
 71
 -159
 72
 -151
 73
 -155
  0
VERTEX
  8
72OFGO3D01_WP__CONNECTOR__119
 10
0.0
 20
0.0
 30
0.0
 70
   128
 62
  9
 71
  155
 72
  157
 73
  151
  0
VERTEX
  8
72OFGO3D01_WP__CONNECTOR__119
 10
0.0
 20
0.0
 30
0.0
 70
   128
 62
  9
 71
 -151
 72
 -157
 73
 -155
  0
VERTEX
  8
72OFGO3D01_WP__CONNECTOR__119
 10
0.0
 20
0.0
 30
0.0
 70
   128
 62
  9
 71
  157
 72
  153
 73
  151
  0
VERTEX
  8
72OFGO3D01_WP__CONNECTOR__119
 10
0.0
 20
0.0
 30
0.0
 70
   128
 62
  9
 71
 -151
 72
 -153
 73
 -157
  0
VERTEX
  8
72OFGO3D01_WP__CONNECTOR__119
 10
0.0
 20
0.0
 30
0.0
 70
   128
 62
  9
 71
  151
 72
  147
 73
  159
  0
VERTEX
  8
72OFGO3D01_WP__CONNECTOR__119
 10
0.0
 20
0.0
 30
0.0
 70
   128
 62
  9
 71
 -159
 72
 -147
 73
 -151
  0
VERTEX
  8
72OFGO3D01_WP__CONNECTOR__119
 10
0.0
 20
0.0
 30
0.0
 70
   128
 62
  9
 71
  149
 72
  145
 73
  147
  0
VERTEX
  8
72OFGO3D01_WP__CONNECTOR__119
 10
0.0
 20
0.0
 30
0.0
 70
   128
 62
  9
 71
 -147
 72
 -145
 73
 -149
  0
VERTEX
  8
72OFGO3D01_WP__CONNECTOR__119
 10
0.0
 20
0.0
 30
0.0
 70
   128
 62
  9
 71
  145
 72
  143
 73
  147
  0
VERTEX
  8
72OFGO3D01_WP__CONNECTOR__119
 10
0.0
 20
0.0
 30
0.0
 70
   128
 62
  9
 71
 -147
 72
 -143
 73
 -145
  0
VERTEX
  8
72OFGO3D01_WP__CONNECTOR__119
 10
0.0
 20
0.0
 30
0.0
 70
   128
 62
  9
 71
  147
 72
  143
 73
  159
  0
VERTEX
  8
72OFGO3D01_WP__CONNECTOR__119
 10
0.0
 20
0.0
 30
0.0
 70
   128
 62
  9
 71
 -159
 72
 -143
 73
 -147
  0
VERTEX
  8
72OFGO3D01_WP__CONNECTOR__119
 10
0.0
 20
0.0
 30
0.0
 70
   128
 62
  9
 71
  135
 72
  131
 73
  165
  0
VERTEX
  8
72OFGO3D01_WP__CONNECTOR__119
 10
0.0
 20
0.0
 30
0.0
 70
   128
 62
  9
 71
 -165
 72
 -131
 73
 -135
  0
VERTEX
  8
72OFGO3D01_WP__CONNECTOR__119
 10
0.0
 20
0.0
 30
0.0
 70
   128
 62
  9
 71
  165
 72
  131
 73
  127
  0
VERTEX
  8
72OFGO3D01_WP__CONNECTOR__119
 10
0.0
 20
0.0
 30
0.0
 70
   128
 62
  9
 71
 -127
 72
 -131
 73
 -165
  0
VERTEX
  8
72OFGO3D01_WP__CONNECTOR__119
 10
0.0
 20
0.0
 30
0.0
 70
   128
 62
  9
 71
  165
 72
  127
 73
  163
  0
VERTEX
  8
72OFGO3D01_WP__CONNECTOR__119
 10
0.0
 20
0.0
 30
0.0
 70
   128
 62
  9
 71
 -163
 72
 -127
 73
 -165
  0
VERTEX
  8
72OFGO3D01_WP__CONNECTOR__119
 10
0.0
 20
0.0
 30
0.0
 70
   128
 62
  9
 71
  129
 72
  127
 73
  133
  0
VERTEX
  8
72OFGO3D01_WP__CONNECTOR__119
 10
0.0
 20
0.0
 30
0.0
 70
   128
 62
  9
 71
 -133
 72
 -127
 73
 -129
  0
VERTEX
  8
72OFGO3D01_WP__CONNECTOR__119
 10
0.0
 20
0.0
 30
0.0
 70
   128
 62
  9
 71
  125
 72
  121
 73
  123
  0
VERTEX
  8
72OFGO3D01_WP__CONNECTOR__119
 10
0.0
 20
0.0
 30
0.0
 70
   128
 62
  9
 71
 -123
 72
 -121
 73
 -125
  0
VERTEX
  8
72OFGO3D01_WP__CONNECTOR__119
 10
0.0
 20
0.0
 30
0.0
 70
   128
 62
  9
 71
  121
 72
  119
 73
  123
  0
VERTEX
  8
72OFGO3D01_WP__CONNECTOR__119
 10
0.0
 20
0.0
 30
0.0
 70
   128
 62
  9
 71
 -123
 72
 -119
 73
 -121
  0
VERTEX
  8
72OFGO3D01_WP__CONNECTOR__119
 10
0.0
 20
0.0
 30
0.0
 70
   128
 62
  9
 71
  123
 72
  119
 73
  169
  0
VERTEX
  8
72OFGO3D01_WP__CONNECTOR__119
 10
0.0
 20
0.0
 30
0.0
 70
   128
 62
  9
 71
 -169
 72
 -119
 73
 -123
  0
VERTEX
  8
72OFGO3D01_WP__CONNECTOR__119
 10
0.0
 20
0.0
 30
0.0
 70
   128
 62
  9
 71
  117
 72
  113
 73
  115
  0
VERTEX
  8
72OFGO3D01_WP__CONNECTOR__119
 10
0.0
 20
0.0
 30
0.0
 70
   128
 62
  9
 71
 -115
 72
 -113
 73
 -117
  0
VERTEX
  8
72OFGO3D01_WP__CONNECTOR__119
 10
0.0
 20
0.0
 30
0.0
 70
   128
 62
  9
 71
  113
 72
  111
 73
  115
  0
VERTEX
  8
72OFGO3D01_WP__CONNECTOR__119
 10
0.0
 20
0.0
 30
0.0
 70
   128
 62
  9
 71
 -115
 72
 -111
 73
 -113
  0
VERTEX
  8
72OFGO3D01_WP__CONNECTOR__119
 10
0.0
 20
0.0
 30
0.0
 70
   128
 62
  9
 71
  115
 72
  111
 73
  171
  0
VERTEX
  8
72OFGO3D01_WP__CONNECTOR__119
 10
0.0
 20
0.0
 30
0.0
 70
   128
 62
  9
 71
 -171
 72
 -111
 73
 -115
  0
VERTEX
  8
72OFGO3D01_WP__CONNECTOR__119
 10
0.0
 20
0.0
 30
0.0
 70
   128
 62
  9
 71
  169
 72
  119
 73
  115
  0
VERTEX
  8
72OFGO3D01_WP__CONNECTOR__119
 10
0.0
 20
0.0
 30
0.0
 70
   128
 62
  9
 71
 -115
 72
 -119
 73
 -169
  0
VERTEX
  8
72OFGO3D01_WP__CONNECTOR__119
 10
0.0
 20
0.0
 30
0.0
 70
   128
 62
  9
 71
  111
 72
  107
 73
  171
  0
VERTEX
  8
72OFGO3D01_WP__CONNECTOR__119
 10
0.0
 20
0.0
 30
0.0
 70
   128
 62
  9
 71
 -171
 72
 -107
 73
 -111
  0
VERTEX
  8
72OFGO3D01_WP__CONNECTOR__119
 10
0.0
 20
0.0
 30
0.0
 70
   128
 62
  9
 71
  171
 72
  107
 73
  175
  0
VERTEX
  8
72OFGO3D01_WP__CONNECTOR__119
 10
0.0
 20
0.0
 30
0.0
 70
   128
 62
  9
 71
 -175
 72
 -107
 73
 -171
  0
VERTEX
  8
72OFGO3D01_WP__CONNECTOR__119
 10
0.0
 20
0.0
 30
0.0
 70
   128
 62
  9
 71
  133
 72
  127
 73
  131
  0
VERTEX
  8
72OFGO3D01_WP__CONNECTOR__119
 10
0.0
 20
0.0
 30
0.0
 70
   128
 62
  9
 71
 -131
 72
 -127
 73
 -133
  0
VERTEX
  8
72OFGO3D01_WP__CONNECTOR__119
 10
0.0
 20
0.0
 30
0.0
 70
   128
 62
  9
 71
  161
 72
  159
 73
  139
  0
VERTEX
  8
72OFGO3D01_WP__CONNECTOR__119
 10
0.0
 20
0.0
 30
0.0
 70
   128
 62
  9
 71
 -139
 72
 -159
 73
 -161
  0
VERTEX
  8
72OFGO3D01_WP__CONNECTOR__119
 10
0.0
 20
0.0
 30
0.0
 70
   128
 62
  9
 71
  139
 72
  159
 73
  143
  0
VERTEX
  8
72OFGO3D01_WP__CONNECTOR__119
 10
0.0
 20
0.0
 30
0.0
 70
   128
 62
  9
 71
 -143
 72
 -159
 73
 -139
  0
VERTEX
  8
72OFGO3D01_WP__CONNECTOR__119
 10
0.0
 20
0.0
 30
0.0
 70
   128
 62
  9
 71
  105
 72
  108
 73
  180
  0
VERTEX
  8
72OFGO3D01_WP__CONNECTOR__119
 10
0.0
 20
0.0
 30
0.0
 70
   128
 62
  9
 71
 -180
 72
 -108
 73
 -105
  0
VERTEX
  8
72OFGO3D01_WP__CONNECTOR__119
 10
0.0
 20
0.0
 30
0.0
 70
   128
 62
  9
 71
  106
 72
  110
 73
  105
  0
VERTEX
  8
72OFGO3D01_WP__CONNECTOR__119
 10
0.0
 20
0.0
 30
0.0
 70
   128
 62
  9
 71
 -105
 72
 -110
 73
 -106
  0
VERTEX
  8
72OFGO3D01_WP__CONNECTOR__119
 10
0.0
 20
0.0
 30
0.0
 70
   128
 62
  9
 71
  110
 72
  108
 73
  105
  0
VERTEX
  8
72OFGO3D01_WP__CONNECTOR__119
 10
0.0
 20
0.0
 30
0.0
 70
   128
 62
  9
 71
 -105
 72
 -108
 73
 -110
  0
VERTEX
  8
72OFGO3D01_WP__CONNECTOR__119
 10
0.0
 20
0.0
 30
0.0
 70
   128
 62
  9
 71
  112
 72
  172
 73
  108
  0
VERTEX
  8
72OFGO3D01_WP__CONNECTOR__119
 10
0.0
 20
0.0
 30
0.0
 70
   128
 62
  9
 71
 -108
 72
 -172
 73
 -112
  0
VERTEX
  8
72OFGO3D01_WP__CONNECTOR__119
 10
0.0
 20
0.0
 30
0.0
 70
   128
 62
  9
 71
  172
 72
  112
 73
  116
  0
VERTEX
  8
72OFGO3D01_WP__CONNECTOR__119
 10
0.0
 20
0.0
 30
0.0
 70
   128
 62
  9
 71
 -116
 72
 -112
 73
 -172
  0
VERTEX
  8
72OFGO3D01_WP__CONNECTOR__119
 10
0.0
 20
0.0
 30
0.0
 70
   128
 62
  9
 71
  172
 72
  116
 73
  174
  0
VERTEX
  8
72OFGO3D01_WP__CONNECTOR__119
 10
0.0
 20
0.0
 30
0.0
 70
   128
 62
  9
 71
 -174
 72
 -116
 73
 -172
  0
VERTEX
  8
72OFGO3D01_WP__CONNECTOR__119
 10
0.0
 20
0.0
 30
0.0
 70
   128
 62
  9
 71
  118
 72
  116
 73
  114
  0
VERTEX
  8
72OFGO3D01_WP__CONNECTOR__119
 10
0.0
 20
0.0
 30
0.0
 70
   128
 62
  9
 71
 -114
 72
 -116
 73
 -118
  0
VERTEX
  8
72OFGO3D01_WP__CONNECTOR__119
 10
0.0
 20
0.0
 30
0.0
 70
   128
 62
  9
 71
  174
 72
  116
 73
  170
  0
VERTEX
  8
72OFGO3D01_WP__CONNECTOR__119
 10
0.0
 20
0.0
 30
0.0
 70
   128
 62
  9
 71
 -170
 72
 -116
 73
 -174
  0
VERTEX
  8
72OFGO3D01_WP__CONNECTOR__119
 10
0.0
 20
0.0
 30
0.0
 70
   128
 62
  9
 71
  122
 72
  124
 73
  120
  0
VERTEX
  8
72OFGO3D01_WP__CONNECTOR__119
 10
0.0
 20
0.0
 30
0.0
 70
   128
 62
  9
 71
 -120
 72
 -124
 73
 -122
  0
VERTEX
  8
72OFGO3D01_WP__CONNECTOR__119
 10
0.0
 20
0.0
 30
0.0
 70
   128
 62
  9
 71
  122
 72
  126
 73
  124
  0
VERTEX
  8
72OFGO3D01_WP__CONNECTOR__119
 10
0.0
 20
0.0
 30
0.0
 70
   128
 62
  9
 71
 -124
 72
 -126
 73
 -122
  0
VERTEX
  8
72OFGO3D01_WP__CONNECTOR__119
 10
0.0
 20
0.0
 30
0.0
 70
   128
 62
  9
 71
  128
 72
  164
 73
  124
  0
VERTEX
  8
72OFGO3D01_WP__CONNECTOR__119
 10
0.0
 20
0.0
 30
0.0
 70
   128
 62
  9
 71
 -124
 72
 -164
 73
 -128
  0
VERTEX
  8
72OFGO3D01_WP__CONNECTOR__119
 10
0.0
 20
0.0
 30
0.0
 70
   128
 62
  9
 71
  130
 72
  134
 73
  128
  0
VERTEX
  8
72OFGO3D01_WP__CONNECTOR__119
 10
0.0
 20
0.0
 30
0.0
 70
   128
 62
  9
 71
 -128
 72
 -134
 73
 -130
  0
VERTEX
  8
72OFGO3D01_WP__CONNECTOR__119
 10
0.0
 20
0.0
 30
0.0
 70
   128
 62
  9
 71
  134
 72
  132
 73
  128
  0
VERTEX
  8
72OFGO3D01_WP__CONNECTOR__119
 10
0.0
 20
0.0
 30
0.0
 70
   128
 62
  9
 71
 -128
 72
 -132
 73
 -134
  0
VERTEX
  8
72OFGO3D01_WP__CONNECTOR__119
 10
0.0
 20
0.0
 30
0.0
 70
   128
 62
  9
 71
  128
 72
  132
 73
  166
  0
VERTEX
  8
72OFGO3D01_WP__CONNECTOR__119
 10
0.0
 20
0.0
 30
0.0
 70
   128
 62
  9
 71
 -166
 72
 -132
 73
 -128
  0
VERTEX
  8
72OFGO3D01_WP__CONNECTOR__119
 10
0.0
 20
0.0
 30
0.0
 70
   128
 62
  9
 71
  128
 72
  166
 73
  164
  0
VERTEX
  8
72OFGO3D01_WP__CONNECTOR__119
 10
0.0
 20
0.0
 30
0.0
 70
   128
 62
  9
 71
 -164
 72
 -166
 73
 -128
  0
VERTEX
  8
72OFGO3D01_WP__CONNECTOR__119
 10
0.0
 20
0.0
 30
0.0
 70
   128
 62
  9
 71
  138
 72
  142
 73
  136
  0
VERTEX
  8
72OFGO3D01_WP__CONNECTOR__119
 10
0.0
 20
0.0
 30
0.0
 70
   128
 62
  9
 71
 -136
 72
 -142
 73
 -138
  0
VERTEX
  8
72OFGO3D01_WP__CONNECTOR__119
 10
0.0
 20
0.0
 30
0.0
 70
   128
 62
  9
 71
  142
 72
  140
 73
  136
  0
VERTEX
  8
72OFGO3D01_WP__CONNECTOR__119
 10
0.0
 20
0.0
 30
0.0
 70
   128
 62
  9
 71
 -136
 72
 -140
 73
 -142
  0
VERTEX
  8
72OFGO3D01_WP__CONNECTOR__119
 10
0.0
 20
0.0
 30
0.0
 70
   128
 62
  9
 71
  144
 72
  160
 73
  140
  0
VERTEX
  8
72OFGO3D01_WP__CONNECTOR__119
 10
0.0
 20
0.0
 30
0.0
 70
   128
 62
  9
 71
 -140
 72
 -160
 73
 -144
  0
VERTEX
  8
72OFGO3D01_WP__CONNECTOR__119
 10
0.0
 20
0.0
 30
0.0
 70
   128
 62
  9
 71
  160
 72
  144
 73
  148
  0
VERTEX
  8
72OFGO3D01_WP__CONNECTOR__119
 10
0.0
 20
0.0
 30
0.0
 70
   128
 62
  9
 71
 -148
 72
 -144
 73
 -160
  0
VERTEX
  8
72OFGO3D01_WP__CONNECTOR__119
 10
0.0
 20
0.0
 30
0.0
 70
   128
 62
  9
 71
  160
 72
  148
 73
  152
  0
VERTEX
  8
72OFGO3D01_WP__CONNECTOR__119
 10
0.0
 20
0.0
 30
0.0
 70
   128
 62
  9
 71
 -152
 72
 -148
 73
 -160
  0
VERTEX
  8
72OFGO3D01_WP__CONNECTOR__119
 10
0.0
 20
0.0
 30
0.0
 70
   128
 62
  9
 71
  160
 72
  152
 73
  156
  0
VERTEX
  8
72OFGO3D01_WP__CONNECTOR__119
 10
0.0
 20
0.0
 30
0.0
 70
   128
 62
  9
 71
 -156
 72
 -152
 73
 -160
  0
VERTEX
  8
72OFGO3D01_WP__CONNECTOR__119
 10
0.0
 20
0.0
 30
0.0
 70
   128
 62
  9
 71
  150
 72
  148
 73
  146
  0
VERTEX
  8
72OFGO3D01_WP__CONNECTOR__119
 10
0.0
 20
0.0
 30
0.0
 70
   128
 62
  9
 71
 -146
 72
 -148
 73
 -150
  0
VERTEX
  8
72OFGO3D01_WP__CONNECTOR__119
 10
0.0
 20
0.0
 30
0.0
 70
   128
 62
  9
 71
  154
 72
  158
 73
  152
  0
VERTEX
  8
72OFGO3D01_WP__CONNECTOR__119
 10
0.0
 20
0.0
 30
0.0
 70
   128
 62
  9
 71
 -152
 72
 -158
 73
 -154
  0
VERTEX
  8
72OFGO3D01_WP__CONNECTOR__119
 10
0.0
 20
0.0
 30
0.0
 70
   128
 62
  9
 71
  158
 72
  156
 73
  152
  0
VERTEX
  8
72OFGO3D01_WP__CONNECTOR__119
 10
0.0
 20
0.0
 30
0.0
 70
   128
 62
  9
 71
 -152
 72
 -156
 73
 -158
  0
VERTEX
  8
72OFGO3D01_WP__CONNECTOR__119
 10
0.0
 20
0.0
 30
0.0
 70
   128
 62
  9
 71
  160
 72
  162
 73
  140
  0
VERTEX
  8
72OFGO3D01_WP__CONNECTOR__119
 10
0.0
 20
0.0
 30
0.0
 70
   128
 62
  9
 71
 -140
 72
 -162
 73
 -160
  0
VERTEX
  8
72OFGO3D01_WP__CONNECTOR__119
 10
0.0
 20
0.0
 30
0.0
 70
   128
 62
  9
 71
  140
 72
  162
 73
  136
  0
VERTEX
  8
72OFGO3D01_WP__CONNECTOR__119
 10
0.0
 20
0.0
 30
0.0
 70
   128
 62
  9
 71
 -136
 72
 -162
 73
 -140
  0
VERTEX
  8
72OFGO3D01_WP__CONNECTOR__119
 10
0.0
 20
0.0
 30
0.0
 70
   128
 62
  9
 71
  164
 72
  168
 73
  124
  0
VERTEX
  8
72OFGO3D01_WP__CONNECTOR__119
 10
0.0
 20
0.0
 30
0.0
 70
   128
 62
  9
 71
 -124
 72
 -168
 73
 -164
  0
VERTEX
  8
72OFGO3D01_WP__CONNECTOR__119
 10
0.0
 20
0.0
 30
0.0
 70
   128
 62
  9
 71
  168
 72
  170
 73
  124
  0
VERTEX
  8
72OFGO3D01_WP__CONNECTOR__119
 10
0.0
 20
0.0
 30
0.0
 70
   128
 62
  9
 71
 -124
 72
 -170
 73
 -168
  0
VERTEX
  8
72OFGO3D01_WP__CONNECTOR__119
 10
0.0
 20
0.0
 30
0.0
 70
   128
 62
  9
 71
  172
 72
  176
 73
  108
  0
VERTEX
  8
72OFGO3D01_WP__CONNECTOR__119
 10
0.0
 20
0.0
 30
0.0
 70
   128
 62
  9
 71
 -108
 72
 -176
 73
 -172
  0
VERTEX
  8
72OFGO3D01_WP__CONNECTOR__119
 10
0.0
 20
0.0
 30
0.0
 70
   128
 62
  9
 71
  108
 72
  176
 73
  180
  0
VERTEX
  8
72OFGO3D01_WP__CONNECTOR__119
 10
0.0
 20
0.0
 30
0.0
 70
   128
 62
  9
 71
 -180
 72
 -176
 73
 -108
  0
VERTEX
  8
72OFGO3D01_WP__CONNECTOR__119
 10
0.0
 20
0.0
 30
0.0
 70
   128
 62
  9
 71
  182
 72
  180
 73
  178
  0
VERTEX
  8
72OFGO3D01_WP__CONNECTOR__119
 10
0.0
 20
0.0
 30
0.0
 70
   128
 62
  9
 71
 -178
 72
 -180
 73
 -182
  0
VERTEX
  8
72OFGO3D01_WP__CONNECTOR__119
 10
0.0
 20
0.0
 30
0.0
 70
   128
 62
  9
 71
  132
 72
  136
 73
  166
  0
VERTEX
  8
72OFGO3D01_WP__CONNECTOR__119
 10
0.0
 20
0.0
 30
0.0
 70
   128
 62
  9
 71
 -166
 72
 -136
 73
 -132
  0
VERTEX
  8
72OFGO3D01_WP__CONNECTOR__119
 10
0.0
 20
0.0
 30
0.0
 70
   128
 62
  9
 71
  116
 72
  120
 73
  170
  0
VERTEX
  8
72OFGO3D01_WP__CONNECTOR__119
 10
0.0
 20
0.0
 30
0.0
 70
   128
 62
  9
 71
 -170
 72
 -120
 73
 -116
  0
VERTEX
  8
72OFGO3D01_WP__CONNECTOR__119
 10
0.0
 20
0.0
 30
0.0
 70
   128
 62
  9
 71
  170
 72
  120
 73
  124
  0
VERTEX
  8
72OFGO3D01_WP__CONNECTOR__119
 10
0.0
 20
0.0
 30
0.0
 70
   128
 62
  9
 71
 -124
 72
 -120
 73
 -170
  0
VERTEX
  8
72OFGO3D01_WP__CONNECTOR__119
 10
0.0
 20
0.0
 30
0.0
 70
   128
 62
  9
 71
  166
 72
  136
 73
  162
  0
VERTEX
  8
72OFGO3D01_WP__CONNECTOR__119
 10
0.0
 20
0.0
 30
0.0
 70
   128
 62
  9
 71
 -162
 72
 -136
 73
 -166
  0
VERTEX
  8
72OFGO3D01_WP__CONNECTOR__119
 10
0.0
 20
0.0
 30
0.0
 70
   128
 62
  9
 71
  114
 72
  116
 73
  112
  0
VERTEX
  8
72OFGO3D01_WP__CONNECTOR__119
 10
0.0
 20
0.0
 30
0.0
 70
   128
 62
  9
 71
 -112
 72
 -116
 73
 -114
  0
VERTEX
  8
72OFGO3D01_WP__CONNECTOR__119
 10
0.0
 20
0.0
 30
0.0
 70
   128
 62
  9
 71
  178
 72
  180
 73
  176
  0
VERTEX
  8
72OFGO3D01_WP__CONNECTOR__119
 10
0.0
 20
0.0
 30
0.0
 70
   128
 62
  9
 71
 -176
 72
 -180
 73
 -178
  0
VERTEX
  8
72OFGO3D01_WP__CONNECTOR__119
 10
0.0
 20
0.0
 30
0.0
 70
   128
 62
  9
 71
  146
 72
  148
 73
  144
  0
VERTEX
  8
72OFGO3D01_WP__CONNECTOR__119
 10
0.0
 20
0.0
 30
0.0
 70
   128
 62
  9
 71
 -144
 72
 -148
 73
 -146
  0
SEQEND
  0
ENDBLK
  8
0
  0
BLOCK
  8
0
  2
OB__000005
 70
    64
 10
0.0
 20
0.0
 30
0.0
  3
OB__000005
  0
INSERT
  8
72OFGO3D01_WP__CONNECTOR__119
  2
OB__000004
 10
0.2
 20
0.0065
 30
0.673
 41
1
 42
1
 43
1
  0
ENDBLK
  8
0
  0
BLOCK
  8
0
  2
OB__000006
 70
    64
 10
0.0
 20
0.0
 30
0.0
  3
OB__000006
  0
INSERT
  8
72OFGO3D01_WP__CONNECTOR__119
  2
OB__000004
 10
1.2
 20
0.0065
 30
0.673
 41
1
 42
1
 43
1
  0
ENDBLK
  8
0
  0
BLOCK
  8
0
  2
OB__000007
 70
    64
 10
0.0
 20
0.0
 30
0.0
  3
OB__000007
  0
POLYLINE
  8
72OFGO3D01_WP__COVER__233
 66
     1
 70
    64
 71
64
 72
248
 10
0.0
 20
0.0
 30
0.0
  0
VERTEX
  8
72OFGO3D01_WP__COVER__233
 10
0.001
 20
-0.0185
 30
0
 70
    192
  0
VERTEX
  8
72OFGO3D01_WP__COVER__233
 10
0.001
 20
-0.01875
 30
6.7e-005
 70
    192
  0
VERTEX
  8
72OFGO3D01_WP__COVER__233
 10
0.000617
 20
-0.018462
 30
7.6e-005
 70
    192
  0
VERTEX
  8
72OFGO3D01_WP__COVER__233
 10
0.000617
 20
-0.018924
 30
0.000538
 70
    192
  0
VERTEX
  8
72OFGO3D01_WP__COVER__233
 10
0.000293
 20
-0.018707
 30
0.000646
 70
    192
  0
VERTEX
  8
72OFGO3D01_WP__COVER__233
 10
0.000293
 20
-0.018354
 30
0.000293
 70
    192
  0
VERTEX
  8
72OFGO3D01_WP__COVER__233
 10
0.001
 20
-0.019
 30
0.0005
 70
    192
  0
VERTEX
  8
72OFGO3D01_WP__COVER__233
 10
0.001
 20
-0.018933
 30
0.00025
 70
    192
  0
VERTEX
  8
72OFGO3D01_WP__COVER__233
 10
7.6e-005
 20
-0.018383
 30
0.000809
 70
    192
  0
VERTEX
  8
72OFGO3D01_WP__COVER__233
 10
0
 20
-0.018
 30
0.001
 70
    192
  0
VERTEX
  8
72OFGO3D01_WP__COVER__233
 10
7.6e-005
 20
-0.018191
 30
0.000617
 70
    192
  0
VERTEX
  8
72OFGO3D01_WP__COVER__233
 10
0
 20
-0.018
 30
0.018
 70
    192
  0
VERTEX
  8
72OFGO3D01_WP__COVER__233
 10
0.000134
 20
-0.0185
 30
0.018
 70
    192
  0
VERTEX
  8
72OFGO3D01_WP__COVER__233
 10
0.0005
 20
-0.018866
 30
0.018
 70
    192
  0
VERTEX
  8
72OFGO3D01_WP__COVER__233
 10
0.001
 20
-0.019
 30
0.018
 70
    192
  0
VERTEX
  8
72OFGO3D01_WP__COVER__233
 10
0.001
 20
0
 30
0.0005
 70
    192
  0
VERTEX
  8
72OFGO3D01_WP__COVER__233
 10
0.001
 20
-6.7e-005
 30
0.00025
 70
    192
  0
VERTEX
  8
72OFGO3D01_WP__COVER__233
 10
0.000617
 20
-7.6e-005
 30
0.000538
 70
    192
  0
VERTEX
  8
72OFGO3D01_WP__COVER__233
 10
0.000617
 20
-0.000538
 30
7.6e-005
 70
    192
  0
VERTEX
  8
72OFGO3D01_WP__COVER__233
 10
0.000293
 20
-0.000646
 30
0.000293
 70
    192
  0
VERTEX
  8
72OFGO3D01_WP__COVER__233
 10
0.000293
 20
-0.000293
 30
0.000646
 70
    192
  0
VERTEX
  8
72OFGO3D01_WP__COVER__233
 10
0.001
 20
-0.0005
 30
0
 70
    192
  0
VERTEX
  8
72OFGO3D01_WP__COVER__233
 10
0.001
 20
-0.00025
 30
6.7e-005
 70
    192
  0
VERTEX
  8
72OFGO3D01_WP__COVER__233
 10
7.6e-005
 20
-0.000809
 30
0.000617
 70
    192
  0
VERTEX
  8
72OFGO3D01_WP__COVER__233
 10
0
 20
-0.001
 30
0.001
 70
    192
  0
VERTEX
  8
72OFGO3D01_WP__COVER__233
 10
7.6e-005
 20
-0.000617
 30
0.000809
 70
    192
  0
VERTEX
  8
72OFGO3D01_WP__COVER__233
 10
0.001
 20
0
 30
0.018
 70
    192
  0
VERTEX
  8
72OFGO3D01_WP__COVER__233
 10
0.0005
 20
-0.000134
 30
0.018
 70
    192
  0
VERTEX
  8
72OFGO3D01_WP__COVER__233
 10
0.000134
 20
-0.0005
 30
0.018
 70
    192
  0
VERTEX
  8
72OFGO3D01_WP__COVER__233
 10
0
 20
-0.001
 30
0.018
 70
    192
  0
VERTEX
  8
72OFGO3D01_WP__COVER__233
 10
0.001
 20
-0.001
 30
0.019
 70
    192
  0
VERTEX
  8
72OFGO3D01_WP__COVER__233
 10
0.0005
 20
-0.001
 30
0.018866
 70
    192
  0
VERTEX
  8
72OFGO3D01_WP__COVER__233
 10
0.001
 20
-0.018
 30
0.019
 70
    192
  0
VERTEX
  8
72OFGO3D01_WP__COVER__233
 10
0.0005
 20
-0.018
 30
0.018866
 70
    192
  0
VERTEX
  8
72OFGO3D01_WP__COVER__233
 10
0.000134
 20
-0.018
 30
0.0185
 70
    192
  0
VERTEX
  8
72OFGO3D01_WP__COVER__233
 10
0.000134
 20
-0.001
 30
0.0185
 70
    192
  0
VERTEX
  8
72OFGO3D01_WP__COVER__233
 10
0.00025
 20
-0.000567
 30
0.0185
 70
    192
  0
VERTEX
  8
72OFGO3D01_WP__COVER__233
 10
0.000567
 20
-0.00075
 30
0.018866
 70
    192
  0
VERTEX
  8
72OFGO3D01_WP__COVER__233
 10
0.001
 20
-0.000134
 30
0.0185
 70
    192
  0
VERTEX
  8
72OFGO3D01_WP__COVER__233
 10
0.000567
 20
-0.00025
 30
0.0185
 70
    192
  0
VERTEX
  8
72OFGO3D01_WP__COVER__233
 10
0.001
 20
-0.0005
 30
0.018866
 70
    192
  0
VERTEX
  8
72OFGO3D01_WP__COVER__233
 10
0.00075
 20
-0.000567
 30
0.018866
 70
    192
  0
VERTEX
  8
72OFGO3D01_WP__COVER__233
 10
0.00025
 20
-0.018433
 30
0.0185
 70
    192
  0
VERTEX
  8
72OFGO3D01_WP__COVER__233
 10
0.000567
 20
-0.01875
 30
0.0185
 70
    192
  0
VERTEX
  8
72OFGO3D01_WP__COVER__233
 10
0.001
 20
-0.018866
 30
0.0185
 70
    192
  0
VERTEX
  8
72OFGO3D01_WP__COVER__233
 10
0.001
 20
-0.0185
 30
0.018866
 70
    192
  0
VERTEX
  8
72OFGO3D01_WP__COVER__233
 10
0.00075
 20
-0.018433
 30
0.018866
 70
    192
  0
VERTEX
  8
72OFGO3D01_WP__COVER__233
 10
0.000567
 20
-0.01825
 30
0.018866
 70
    192
  0
VERTEX
  8
72OFGO3D01_WP__COVER__233
 10
0.003
 20
-0.0005
 30
0
 70
    192
  0
VERTEX
  8
72OFGO3D01_WP__COVER__233
 10
0.003
 20
-0.00025
 30
6.7e-005
 70
    192
  0
VERTEX
  8
72OFGO3D01_WP__COVER__233
 10
0.003
 20
-6.7e-005
 30
0.00025
 70
    192
  0
VERTEX
  8
72OFGO3D01_WP__COVER__233
 10
0.003
 20
0
 30
0.0005
 70
    192
  0
VERTEX
  8
72OFGO3D01_WP__COVER__233
 10
0.003
 20
0
 30
0.018
 70
    192
  0
VERTEX
  8
72OFGO3D01_WP__COVER__233
 10
0.003
 20
-0.000134
 30
0.0185
 70
    192
  0
VERTEX
  8
72OFGO3D01_WP__COVER__233
 10
0.003
 20
-0.0005
 30
0.018866
 70
    192
  0
VERTEX
  8
72OFGO3D01_WP__COVER__233
 10
0.003
 20
-0.001
 30
0.019
 70
    192
  0
VERTEX
  8
72OFGO3D01_WP__COVER__233
 10
0.003
 20
-0.018
 30
0.019
 70
    192
  0
VERTEX
  8
72OFGO3D01_WP__COVER__233
 10
0.003
 20
-0.019
 30
0.018
 70
    192
  0
VERTEX
  8
72OFGO3D01_WP__COVER__233
 10
0.003
 20
-0.019
 30
0.0005
 70
    192
  0
VERTEX
  8
72OFGO3D01_WP__COVER__233
 10
0.003
 20
-0.018933
 30
0.00025
 70
    192
  0
VERTEX
  8
72OFGO3D01_WP__COVER__233
 10
0.003
 20
-0.01875
 30
6.7e-005
 70
    192
  0
VERTEX
  8
72OFGO3D01_WP__COVER__233
 10
0.003
 20
-0.0185
 30
0
 70
    192
  0
VERTEX
  8
72OFGO3D01_WP__COVER__233
 10
0.003
 20
-0.0185
 30
0.018866
 70
    192
  0
VERTEX
  8
72OFGO3D01_WP__COVER__233
 10
0.003
 20
-0.018866
 30
0.0185
 70
    192
  0
VERTEX
  8
72OFGO3D01_WP__COVER__233
 10
0.0
 20
0.0
 30
0.0
 70
   128
 62
  9
 71
  1
 72
  2
 73
  3
  0
VERTEX
  8
72OFGO3D01_WP__COVER__233
 10
0.0
 20
0.0
 30
0.0
 70
   128
 62
  9
 71
 -3
 72
 -2
 73
 -1
  0
VERTEX
  8
72OFGO3D01_WP__COVER__233
 10
0.0
 20
0.0
 30
0.0
 70
   128
 62
  9
 71
  3
 72
  2
 73
  4
  0
VERTEX
  8
72OFGO3D01_WP__COVER__233
 10
0.0
 20
0.0
 30
0.0
 70
   128
 62
  9
 71
 -4
 72
 -2
 73
 -3
  0
VERTEX
  8
72OFGO3D01_WP__COVER__233
 10
0.0
 20
0.0
 30
0.0
 70
   128
 62
  9
 71
  3
 72
  4
 73
  5
  0
VERTEX
  8
72OFGO3D01_WP__COVER__233
 10
0.0
 20
0.0
 30
0.0
 70
   128
 62
  9
 71
 -5
 72
 -4
 73
 -3
  0
VERTEX
  8
72OFGO3D01_WP__COVER__233
 10
0.0
 20
0.0
 30
0.0
 70
   128
 62
  9
 71
  3
 72
  5
 73
  6
  0
VERTEX
  8
72OFGO3D01_WP__COVER__233
 10
0.0
 20
0.0
 30
0.0
 70
   128
 62
  9
 71
 -6
 72
 -5
 73
 -3
  0
VERTEX
  8
72OFGO3D01_WP__COVER__233
 10
0.0
 20
0.0
 30
0.0
 70
   128
 62
  9
 71
  7
 72
  4
 73
  8
  0
VERTEX
  8
72OFGO3D01_WP__COVER__233
 10
0.0
 20
0.0
 30
0.0
 70
   128
 62
  9
 71
 -8
 72
 -4
 73
 -7
  0
VERTEX
  8
72OFGO3D01_WP__COVER__233
 10
0.0
 20
0.0
 30
0.0
 70
   128
 62
  9
 71
  5
 72
  9
 73
  6
  0
VERTEX
  8
72OFGO3D01_WP__COVER__233
 10
0.0
 20
0.0
 30
0.0
 70
   128
 62
  9
 71
 -6
 72
 -9
 73
 -5
  0
VERTEX
  8
72OFGO3D01_WP__COVER__233
 10
0.0
 20
0.0
 30
0.0
 70
   128
 62
  9
 71
  10
 72
  11
 73
  9
  0
VERTEX
  8
72OFGO3D01_WP__COVER__233
 10
0.0
 20
0.0
 30
0.0
 70
   128
 62
  9
 71
 -9
 72
 -11
 73
 -10
  0
VERTEX
  8
72OFGO3D01_WP__COVER__233
 10
0.0
 20
0.0
 30
0.0
 70
   128
 62
  9
 71
  11
 72
  6
 73
  9
  0
VERTEX
  8
72OFGO3D01_WP__COVER__233
 10
0.0
 20
0.0
 30
0.0
 70
   128
 62
  9
 71
 -9
 72
 -6
 73
 -11
  0
VERTEX
  8
72OFGO3D01_WP__COVER__233
 10
0.0
 20
0.0
 30
0.0
 70
   128
 62
  9
 71
  8
 72
  4
 73
  2
  0
VERTEX
  8
72OFGO3D01_WP__COVER__233
 10
0.0
 20
0.0
 30
0.0
 70
   128
 62
  9
 71
 -2
 72
 -4
 73
 -8
  0
VERTEX
  8
72OFGO3D01_WP__COVER__233
 10
0.0
 20
0.0
 30
0.0
 70
   128
 62
  9
 71
  10
 72
  9
 73
  12
  0
VERTEX
  8
72OFGO3D01_WP__COVER__233
 10
0.0
 20
0.0
 30
0.0
 70
   128
 62
  9
 71
 -12
 72
 -9
 73
 -10
  0
VERTEX
  8
72OFGO3D01_WP__COVER__233
 10
0.0
 20
0.0
 30
0.0
 70
   128
 62
  9
 71
  12
 72
  9
 73
  13
  0
VERTEX
  8
72OFGO3D01_WP__COVER__233
 10
0.0
 20
0.0
 30
0.0
 70
   128
 62
  9
 71
 -13
 72
 -9
 73
 -12
  0
VERTEX
  8
72OFGO3D01_WP__COVER__233
 10
0.0
 20
0.0
 30
0.0
 70
   128
 62
  9
 71
  4
 72
  14
 73
  5
  0
VERTEX
  8
72OFGO3D01_WP__COVER__233
 10
0.0
 20
0.0
 30
0.0
 70
   128
 62
  9
 71
 -5
 72
 -14
 73
 -4
  0
VERTEX
  8
72OFGO3D01_WP__COVER__233
 10
0.0
 20
0.0
 30
0.0
 70
   128
 62
  9
 71
  7
 72
  15
 73
  4
  0
VERTEX
  8
72OFGO3D01_WP__COVER__233
 10
0.0
 20
0.0
 30
0.0
 70
   128
 62
  9
 71
 -4
 72
 -15
 73
 -7
  0
VERTEX
  8
72OFGO3D01_WP__COVER__233
 10
0.0
 20
0.0
 30
0.0
 70
   128
 62
  9
 71
  15
 72
  14
 73
  4
  0
VERTEX
  8
72OFGO3D01_WP__COVER__233
 10
0.0
 20
0.0
 30
0.0
 70
   128
 62
  9
 71
 -4
 72
 -14
 73
 -15
  0
VERTEX
  8
72OFGO3D01_WP__COVER__233
 10
0.0
 20
0.0
 30
0.0
 70
   128
 62
  9
 71
  14
 72
  13
 73
  5
  0
VERTEX
  8
72OFGO3D01_WP__COVER__233
 10
0.0
 20
0.0
 30
0.0
 70
   128
 62
  9
 71
 -5
 72
 -13
 73
 -14
  0
VERTEX
  8
72OFGO3D01_WP__COVER__233
 10
0.0
 20
0.0
 30
0.0
 70
   128
 62
  9
 71
  5
 72
  13
 73
  9
  0
VERTEX
  8
72OFGO3D01_WP__COVER__233
 10
0.0
 20
0.0
 30
0.0
 70
   128
 62
  9
 71
 -9
 72
 -13
 73
 -5
  0
VERTEX
  8
72OFGO3D01_WP__COVER__233
 10
0.0
 20
0.0
 30
0.0
 70
   128
 62
  9
 71
  16
 72
  17
 73
  18
  0
VERTEX
  8
72OFGO3D01_WP__COVER__233
 10
0.0
 20
0.0
 30
0.0
 70
   128
 62
  9
 71
 -18
 72
 -17
 73
 -16
  0
VERTEX
  8
72OFGO3D01_WP__COVER__233
 10
0.0
 20
0.0
 30
0.0
 70
   128
 62
  9
 71
  18
 72
  17
 73
  19
  0
VERTEX
  8
72OFGO3D01_WP__COVER__233
 10
0.0
 20
0.0
 30
0.0
 70
   128
 62
  9
 71
 -19
 72
 -17
 73
 -18
  0
VERTEX
  8
72OFGO3D01_WP__COVER__233
 10
0.0
 20
0.0
 30
0.0
 70
   128
 62
  9
 71
  18
 72
  19
 73
  20
  0
VERTEX
  8
72OFGO3D01_WP__COVER__233
 10
0.0
 20
0.0
 30
0.0
 70
   128
 62
  9
 71
 -20
 72
 -19
 73
 -18
  0
VERTEX
  8
72OFGO3D01_WP__COVER__233
 10
0.0
 20
0.0
 30
0.0
 70
   128
 62
  9
 71
  18
 72
  20
 73
  21
  0
VERTEX
  8
72OFGO3D01_WP__COVER__233
 10
0.0
 20
0.0
 30
0.0
 70
   128
 62
  9
 71
 -21
 72
 -20
 73
 -18
  0
VERTEX
  8
72OFGO3D01_WP__COVER__233
 10
0.0
 20
0.0
 30
0.0
 70
   128
 62
  9
 71
  22
 72
  19
 73
  23
  0
VERTEX
  8
72OFGO3D01_WP__COVER__233
 10
0.0
 20
0.0
 30
0.0
 70
   128
 62
  9
 71
 -23
 72
 -19
 73
 -22
  0
VERTEX
  8
72OFGO3D01_WP__COVER__233
 10
0.0
 20
0.0
 30
0.0
 70
   128
 62
  9
 71
  20
 72
  24
 73
  21
  0
VERTEX
  8
72OFGO3D01_WP__COVER__233
 10
0.0
 20
0.0
 30
0.0
 70
   128
 62
  9
 71
 -21
 72
 -24
 73
 -20
  0
VERTEX
  8
72OFGO3D01_WP__COVER__233
 10
0.0
 20
0.0
 30
0.0
 70
   128
 62
  9
 71
  25
 72
  26
 73
  24
  0
VERTEX
  8
72OFGO3D01_WP__COVER__233
 10
0.0
 20
0.0
 30
0.0
 70
   128
 62
  9
 71
 -24
 72
 -26
 73
 -25
  0
VERTEX
  8
72OFGO3D01_WP__COVER__233
 10
0.0
 20
0.0
 30
0.0
 70
   128
 62
  9
 71
  26
 72
  21
 73
  24
  0
VERTEX
  8
72OFGO3D01_WP__COVER__233
 10
0.0
 20
0.0
 30
0.0
 70
   128
 62
  9
 71
 -24
 72
 -21
 73
 -26
  0
VERTEX
  8
72OFGO3D01_WP__COVER__233
 10
0.0
 20
0.0
 30
0.0
 70
   128
 62
  9
 71
  23
 72
  19
 73
  17
  0
VERTEX
  8
72OFGO3D01_WP__COVER__233
 10
0.0
 20
0.0
 30
0.0
 70
   128
 62
  9
 71
 -17
 72
 -19
 73
 -23
  0
VERTEX
  8
72OFGO3D01_WP__COVER__233
 10
0.0
 20
0.0
 30
0.0
 70
   128
 62
  9
 71
  1
 72
  3
 73
  22
  0
VERTEX
  8
72OFGO3D01_WP__COVER__233
 10
0.0
 20
0.0
 30
0.0
 70
   128
 62
  9
 71
 -22
 72
 -3
 73
 -1
  0
VERTEX
  8
72OFGO3D01_WP__COVER__233
 10
0.0
 20
0.0
 30
0.0
 70
   128
 62
  9
 71
  6
 72
  20
 73
  3
  0
VERTEX
  8
72OFGO3D01_WP__COVER__233
 10
0.0
 20
0.0
 30
0.0
 70
   128
 62
  9
 71
 -3
 72
 -20
 73
 -6
  0
VERTEX
  8
72OFGO3D01_WP__COVER__233
 10
0.0
 20
0.0
 30
0.0
 70
   128
 62
  9
 71
  20
 72
  6
 73
  24
  0
VERTEX
  8
72OFGO3D01_WP__COVER__233
 10
0.0
 20
0.0
 30
0.0
 70
   128
 62
  9
 71
 -24
 72
 -6
 73
 -20
  0
VERTEX
  8
72OFGO3D01_WP__COVER__233
 10
0.0
 20
0.0
 30
0.0
 70
   128
 62
  9
 71
  10
 72
  25
 73
  11
  0
VERTEX
  8
72OFGO3D01_WP__COVER__233
 10
0.0
 20
0.0
 30
0.0
 70
   128
 62
  9
 71
 -11
 72
 -25
 73
 -10
  0
VERTEX
  8
72OFGO3D01_WP__COVER__233
 10
0.0
 20
0.0
 30
0.0
 70
   128
 62
  9
 71
  25
 72
  24
 73
  11
  0
VERTEX
  8
72OFGO3D01_WP__COVER__233
 10
0.0
 20
0.0
 30
0.0
 70
   128
 62
  9
 71
 -11
 72
 -24
 73
 -25
  0
VERTEX
  8
72OFGO3D01_WP__COVER__233
 10
0.0
 20
0.0
 30
0.0
 70
   128
 62
  9
 71
  11
 72
  24
 73
  6
  0
VERTEX
  8
72OFGO3D01_WP__COVER__233
 10
0.0
 20
0.0
 30
0.0
 70
   128
 62
  9
 71
 -6
 72
 -24
 73
 -11
  0
VERTEX
  8
72OFGO3D01_WP__COVER__233
 10
0.0
 20
0.0
 30
0.0
 70
   128
 62
  9
 71
  20
 72
  19
 73
  3
  0
VERTEX
  8
72OFGO3D01_WP__COVER__233
 10
0.0
 20
0.0
 30
0.0
 70
   128
 62
  9
 71
 -3
 72
 -19
 73
 -20
  0
VERTEX
  8
72OFGO3D01_WP__COVER__233
 10
0.0
 20
0.0
 30
0.0
 70
   128
 62
  9
 71
  19
 72
  22
 73
  3
  0
VERTEX
  8
72OFGO3D01_WP__COVER__233
 10
0.0
 20
0.0
 30
0.0
 70
   128
 62
  9
 71
 -3
 72
 -22
 73
 -19
  0
VERTEX
  8
72OFGO3D01_WP__COVER__233
 10
0.0
 20
0.0
 30
0.0
 70
   128
 62
  9
 71
  16
 72
  18
 73
  27
  0
VERTEX
  8
72OFGO3D01_WP__COVER__233
 10
0.0
 20
0.0
 30
0.0
 70
   128
 62
  9
 71
 -27
 72
 -18
 73
 -16
  0
VERTEX
  8
72OFGO3D01_WP__COVER__233
 10
0.0
 20
0.0
 30
0.0
 70
   128
 62
  9
 71
  27
 72
  18
 73
  28
  0
VERTEX
  8
72OFGO3D01_WP__COVER__233
 10
0.0
 20
0.0
 30
0.0
 70
   128
 62
  9
 71
 -28
 72
 -18
 73
 -27
  0
VERTEX
  8
72OFGO3D01_WP__COVER__233
 10
0.0
 20
0.0
 30
0.0
 70
   128
 62
  9
 71
  26
 72
  29
 73
  21
  0
VERTEX
  8
72OFGO3D01_WP__COVER__233
 10
0.0
 20
0.0
 30
0.0
 70
   128
 62
  9
 71
 -21
 72
 -29
 73
 -26
  0
VERTEX
  8
72OFGO3D01_WP__COVER__233
 10
0.0
 20
0.0
 30
0.0
 70
   128
 62
  9
 71
  25
 72
  30
 73
  26
  0
VERTEX
  8
72OFGO3D01_WP__COVER__233
 10
0.0
 20
0.0
 30
0.0
 70
   128
 62
  9
 71
 -26
 72
 -30
 73
 -25
  0
VERTEX
  8
72OFGO3D01_WP__COVER__233
 10
0.0
 20
0.0
 30
0.0
 70
   128
 62
  9
 71
  30
 72
  29
 73
  26
  0
VERTEX
  8
72OFGO3D01_WP__COVER__233
 10
0.0
 20
0.0
 30
0.0
 70
   128
 62
  9
 71
 -26
 72
 -29
 73
 -30
  0
VERTEX
  8
72OFGO3D01_WP__COVER__233
 10
0.0
 20
0.0
 30
0.0
 70
   128
 62
  9
 71
  29
 72
  28
 73
  21
  0
VERTEX
  8
72OFGO3D01_WP__COVER__233
 10
0.0
 20
0.0
 30
0.0
 70
   128
 62
  9
 71
 -21
 72
 -28
 73
 -29
  0
VERTEX
  8
72OFGO3D01_WP__COVER__233
 10
0.0
 20
0.0
 30
0.0
 70
   128
 62
  9
 71
  21
 72
  28
 73
  18
  0
VERTEX
  8
72OFGO3D01_WP__COVER__233
 10
0.0
 20
0.0
 30
0.0
 70
   128
 62
  9
 71
 -18
 72
 -28
 73
 -21
  0
VERTEX
  8
72OFGO3D01_WP__COVER__233
 10
0.0
 20
0.0
 30
0.0
 70
   128
 62
  9
 71
  31
 72
  32
 73
  33
  0
VERTEX
  8
72OFGO3D01_WP__COVER__233
 10
0.0
 20
0.0
 30
0.0
 70
   128
 62
  9
 71
 -33
 72
 -32
 73
 -31
  0
VERTEX
  8
72OFGO3D01_WP__COVER__233
 10
0.0
 20
0.0
 30
0.0
 70
   128
 62
  9
 71
  33
 72
  32
 73
  34
  0
VERTEX
  8
72OFGO3D01_WP__COVER__233
 10
0.0
 20
0.0
 30
0.0
 70
   128
 62
  9
 71
 -34
 72
 -32
 73
 -33
  0
VERTEX
  8
72OFGO3D01_WP__COVER__233
 10
0.0
 20
0.0
 30
0.0
 70
   128
 62
  9
 71
  30
 72
  35
 73
  36
  0
VERTEX
  8
72OFGO3D01_WP__COVER__233
 10
0.0
 20
0.0
 30
0.0
 70
   128
 62
  9
 71
 -36
 72
 -35
 73
 -30
  0
VERTEX
  8
72OFGO3D01_WP__COVER__233
 10
0.0
 20
0.0
 30
0.0
 70
   128
 62
  9
 71
  30
 72
  12
 73
  35
  0
VERTEX
  8
72OFGO3D01_WP__COVER__233
 10
0.0
 20
0.0
 30
0.0
 70
   128
 62
  9
 71
 -35
 72
 -12
 73
 -30
  0
VERTEX
  8
72OFGO3D01_WP__COVER__233
 10
0.0
 20
0.0
 30
0.0
 70
   128
 62
  9
 71
  35
 72
  34
 73
  36
  0
VERTEX
  8
72OFGO3D01_WP__COVER__233
 10
0.0
 20
0.0
 30
0.0
 70
   128
 62
  9
 71
 -36
 72
 -34
 73
 -35
  0
VERTEX
  8
72OFGO3D01_WP__COVER__233
 10
0.0
 20
0.0
 30
0.0
 70
   128
 62
  9
 71
  36
 72
  34
 73
  32
  0
VERTEX
  8
72OFGO3D01_WP__COVER__233
 10
0.0
 20
0.0
 30
0.0
 70
   128
 62
  9
 71
 -32
 72
 -34
 73
 -36
  0
VERTEX
  8
72OFGO3D01_WP__COVER__233
 10
0.0
 20
0.0
 30
0.0
 70
   128
 62
  9
 71
  29
 72
  30
 73
  37
  0
VERTEX
  8
72OFGO3D01_WP__COVER__233
 10
0.0
 20
0.0
 30
0.0
 70
   128
 62
  9
 71
 -37
 72
 -30
 73
 -29
  0
VERTEX
  8
72OFGO3D01_WP__COVER__233
 10
0.0
 20
0.0
 30
0.0
 70
   128
 62
  9
 71
  29
 72
  37
 73
  28
  0
VERTEX
  8
72OFGO3D01_WP__COVER__233
 10
0.0
 20
0.0
 30
0.0
 70
   128
 62
  9
 71
 -28
 72
 -37
 73
 -29
  0
VERTEX
  8
72OFGO3D01_WP__COVER__233
 10
0.0
 20
0.0
 30
0.0
 70
   128
 62
  9
 71
  32
 72
  38
 73
  36
  0
VERTEX
  8
72OFGO3D01_WP__COVER__233
 10
0.0
 20
0.0
 30
0.0
 70
   128
 62
  9
 71
 -36
 72
 -38
 73
 -32
  0
VERTEX
  8
72OFGO3D01_WP__COVER__233
 10
0.0
 20
0.0
 30
0.0
 70
   128
 62
  9
 71
  39
 72
  40
 73
  41
  0
VERTEX
  8
72OFGO3D01_WP__COVER__233
 10
0.0
 20
0.0
 30
0.0
 70
   128
 62
  9
 71
 -41
 72
 -40
 73
 -39
  0
VERTEX
  8
72OFGO3D01_WP__COVER__233
 10
0.0
 20
0.0
 30
0.0
 70
   128
 62
  9
 71
  39
 72
  27
 73
  40
  0
VERTEX
  8
72OFGO3D01_WP__COVER__233
 10
0.0
 20
0.0
 30
0.0
 70
   128
 62
  9
 71
 -40
 72
 -27
 73
 -39
  0
VERTEX
  8
72OFGO3D01_WP__COVER__233
 10
0.0
 20
0.0
 30
0.0
 70
   128
 62
  9
 71
  27
 72
  28
 73
  40
  0
VERTEX
  8
72OFGO3D01_WP__COVER__233
 10
0.0
 20
0.0
 30
0.0
 70
   128
 62
  9
 71
 -40
 72
 -28
 73
 -27
  0
VERTEX
  8
72OFGO3D01_WP__COVER__233
 10
0.0
 20
0.0
 30
0.0
 70
   128
 62
  9
 71
  40
 72
  28
 73
  37
  0
VERTEX
  8
72OFGO3D01_WP__COVER__233
 10
0.0
 20
0.0
 30
0.0
 70
   128
 62
  9
 71
 -37
 72
 -28
 73
 -40
  0
VERTEX
  8
72OFGO3D01_WP__COVER__233
 10
0.0
 20
0.0
 30
0.0
 70
   128
 62
  9
 71
  40
 72
  37
 73
  38
  0
VERTEX
  8
72OFGO3D01_WP__COVER__233
 10
0.0
 20
0.0
 30
0.0
 70
   128
 62
  9
 71
 -38
 72
 -37
 73
 -40
  0
VERTEX
  8
72OFGO3D01_WP__COVER__233
 10
0.0
 20
0.0
 30
0.0
 70
   128
 62
  9
 71
  40
 72
  38
 73
  42
  0
VERTEX
  8
72OFGO3D01_WP__COVER__233
 10
0.0
 20
0.0
 30
0.0
 70
   128
 62
  9
 71
 -42
 72
 -38
 73
 -40
  0
VERTEX
  8
72OFGO3D01_WP__COVER__233
 10
0.0
 20
0.0
 30
0.0
 70
   128
 62
  9
 71
  40
 72
  42
 73
  41
  0
VERTEX
  8
72OFGO3D01_WP__COVER__233
 10
0.0
 20
0.0
 30
0.0
 70
   128
 62
  9
 71
 -41
 72
 -42
 73
 -40
  0
VERTEX
  8
72OFGO3D01_WP__COVER__233
 10
0.0
 20
0.0
 30
0.0
 70
   128
 62
  9
 71
  42
 72
  38
 73
  31
  0
VERTEX
  8
72OFGO3D01_WP__COVER__233
 10
0.0
 20
0.0
 30
0.0
 70
   128
 62
  9
 71
 -31
 72
 -38
 73
 -42
  0
VERTEX
  8
72OFGO3D01_WP__COVER__233
 10
0.0
 20
0.0
 30
0.0
 70
   128
 62
  9
 71
  30
 72
  36
 73
  37
  0
VERTEX
  8
72OFGO3D01_WP__COVER__233
 10
0.0
 20
0.0
 30
0.0
 70
   128
 62
  9
 71
 -37
 72
 -36
 73
 -30
  0
VERTEX
  8
72OFGO3D01_WP__COVER__233
 10
0.0
 20
0.0
 30
0.0
 70
   128
 62
  9
 71
  32
 72
  31
 73
  38
  0
VERTEX
  8
72OFGO3D01_WP__COVER__233
 10
0.0
 20
0.0
 30
0.0
 70
   128
 62
  9
 71
 -38
 72
 -31
 73
 -32
  0
VERTEX
  8
72OFGO3D01_WP__COVER__233
 10
0.0
 20
0.0
 30
0.0
 70
   128
 62
  9
 71
  36
 72
  38
 73
  37
  0
VERTEX
  8
72OFGO3D01_WP__COVER__233
 10
0.0
 20
0.0
 30
0.0
 70
   128
 62
  9
 71
 -37
 72
 -38
 73
 -36
  0
VERTEX
  8
72OFGO3D01_WP__COVER__233
 10
0.0
 20
0.0
 30
0.0
 70
   128
 62
  9
 71
  31
 72
  41
 73
  42
  0
VERTEX
  8
72OFGO3D01_WP__COVER__233
 10
0.0
 20
0.0
 30
0.0
 70
   128
 62
  9
 71
 -42
 72
 -41
 73
 -31
  0
VERTEX
  8
72OFGO3D01_WP__COVER__233
 10
0.0
 20
0.0
 30
0.0
 70
   128
 62
  9
 71
  35
 72
  12
 73
  43
  0
VERTEX
  8
72OFGO3D01_WP__COVER__233
 10
0.0
 20
0.0
 30
0.0
 70
   128
 62
  9
 71
 -43
 72
 -12
 73
 -35
  0
VERTEX
  8
72OFGO3D01_WP__COVER__233
 10
0.0
 20
0.0
 30
0.0
 70
   128
 62
  9
 71
  35
 72
  43
 73
  34
  0
VERTEX
  8
72OFGO3D01_WP__COVER__233
 10
0.0
 20
0.0
 30
0.0
 70
   128
 62
  9
 71
 -34
 72
 -43
 73
 -35
  0
VERTEX
  8
72OFGO3D01_WP__COVER__233
 10
0.0
 20
0.0
 30
0.0
 70
   128
 62
  9
 71
  14
 72
  44
 73
  13
  0
VERTEX
  8
72OFGO3D01_WP__COVER__233
 10
0.0
 20
0.0
 30
0.0
 70
   128
 62
  9
 71
 -13
 72
 -44
 73
 -14
  0
VERTEX
  8
72OFGO3D01_WP__COVER__233
 10
0.0
 20
0.0
 30
0.0
 70
   128
 62
  9
 71
  14
 72
  15
 73
  44
  0
VERTEX
  8
72OFGO3D01_WP__COVER__233
 10
0.0
 20
0.0
 30
0.0
 70
   128
 62
  9
 71
 -44
 72
 -15
 73
 -14
  0
VERTEX
  8
72OFGO3D01_WP__COVER__233
 10
0.0
 20
0.0
 30
0.0
 70
   128
 62
  9
 71
  15
 72
  45
 73
  44
  0
VERTEX
  8
72OFGO3D01_WP__COVER__233
 10
0.0
 20
0.0
 30
0.0
 70
   128
 62
  9
 71
 -44
 72
 -45
 73
 -15
  0
VERTEX
  8
72OFGO3D01_WP__COVER__233
 10
0.0
 20
0.0
 30
0.0
 70
   128
 62
  9
 71
  45
 72
  46
 73
  44
  0
VERTEX
  8
72OFGO3D01_WP__COVER__233
 10
0.0
 20
0.0
 30
0.0
 70
   128
 62
  9
 71
 -44
 72
 -46
 73
 -45
  0
VERTEX
  8
72OFGO3D01_WP__COVER__233
 10
0.0
 20
0.0
 30
0.0
 70
   128
 62
  9
 71
  44
 72
  46
 73
  47
  0
VERTEX
  8
72OFGO3D01_WP__COVER__233
 10
0.0
 20
0.0
 30
0.0
 70
   128
 62
  9
 71
 -47
 72
 -46
 73
 -44
  0
VERTEX
  8
72OFGO3D01_WP__COVER__233
 10
0.0
 20
0.0
 30
0.0
 70
   128
 62
  9
 71
  44
 72
  47
 73
  43
  0
VERTEX
  8
72OFGO3D01_WP__COVER__233
 10
0.0
 20
0.0
 30
0.0
 70
   128
 62
  9
 71
 -43
 72
 -47
 73
 -44
  0
VERTEX
  8
72OFGO3D01_WP__COVER__233
 10
0.0
 20
0.0
 30
0.0
 70
   128
 62
  9
 71
  44
 72
  43
 73
  13
  0
VERTEX
  8
72OFGO3D01_WP__COVER__233
 10
0.0
 20
0.0
 30
0.0
 70
   128
 62
  9
 71
 -13
 72
 -43
 73
 -44
  0
VERTEX
  8
72OFGO3D01_WP__COVER__233
 10
0.0
 20
0.0
 30
0.0
 70
   128
 62
  9
 71
  46
 72
  33
 73
  47
  0
VERTEX
  8
72OFGO3D01_WP__COVER__233
 10
0.0
 20
0.0
 30
0.0
 70
   128
 62
  9
 71
 -47
 72
 -33
 73
 -46
  0
VERTEX
  8
72OFGO3D01_WP__COVER__233
 10
0.0
 20
0.0
 30
0.0
 70
   128
 62
  9
 71
  13
 72
  43
 73
  12
  0
VERTEX
  8
72OFGO3D01_WP__COVER__233
 10
0.0
 20
0.0
 30
0.0
 70
   128
 62
  9
 71
 -12
 72
 -43
 73
 -13
  0
VERTEX
  8
72OFGO3D01_WP__COVER__233
 10
0.0
 20
0.0
 30
0.0
 70
   128
 62
  9
 71
  33
 72
  34
 73
  48
  0
VERTEX
  8
72OFGO3D01_WP__COVER__233
 10
0.0
 20
0.0
 30
0.0
 70
   128
 62
  9
 71
 -48
 72
 -34
 73
 -33
  0
VERTEX
  8
72OFGO3D01_WP__COVER__233
 10
0.0
 20
0.0
 30
0.0
 70
   128
 62
  9
 71
  33
 72
  48
 73
  47
  0
VERTEX
  8
72OFGO3D01_WP__COVER__233
 10
0.0
 20
0.0
 30
0.0
 70
   128
 62
  9
 71
 -47
 72
 -48
 73
 -33
  0
VERTEX
  8
72OFGO3D01_WP__COVER__233
 10
0.0
 20
0.0
 30
0.0
 70
   128
 62
  9
 71
  47
 72
  48
 73
  43
  0
VERTEX
  8
72OFGO3D01_WP__COVER__233
 10
0.0
 20
0.0
 30
0.0
 70
   128
 62
  9
 71
 -43
 72
 -48
 73
 -47
  0
VERTEX
  8
72OFGO3D01_WP__COVER__233
 10
0.0
 20
0.0
 30
0.0
 70
   128
 62
  9
 71
  48
 72
  34
 73
  43
  0
VERTEX
  8
72OFGO3D01_WP__COVER__233
 10
0.0
 20
0.0
 30
0.0
 70
   128
 62
  9
 71
 -43
 72
 -34
 73
 -48
  0
VERTEX
  8
72OFGO3D01_WP__COVER__233
 10
0.0
 20
0.0
 30
0.0
 70
   128
 62
  9
 71
  22
 72
  23
 73
  49
  0
VERTEX
  8
72OFGO3D01_WP__COVER__233
 10
0.0
 20
0.0
 30
0.0
 70
   128
 62
  9
 71
 -49
 72
 -23
 73
 -22
  0
VERTEX
  8
72OFGO3D01_WP__COVER__233
 10
0.0
 20
0.0
 30
0.0
 70
   128
 62
  9
 71
  49
 72
  23
 73
  50
  0
VERTEX
  8
72OFGO3D01_WP__COVER__233
 10
0.0
 20
0.0
 30
0.0
 70
   128
 62
  9
 71
 -50
 72
 -23
 73
 -49
  0
VERTEX
  8
72OFGO3D01_WP__COVER__233
 10
0.0
 20
0.0
 30
0.0
 70
   128
 62
  9
 71
  16
 72
  51
 73
  17
  0
VERTEX
  8
72OFGO3D01_WP__COVER__233
 10
0.0
 20
0.0
 30
0.0
 70
   128
 62
  9
 71
 -17
 72
 -51
 73
 -16
  0
VERTEX
  8
72OFGO3D01_WP__COVER__233
 10
0.0
 20
0.0
 30
0.0
 70
   128
 62
  9
 71
  16
 72
  52
 73
  51
  0
VERTEX
  8
72OFGO3D01_WP__COVER__233
 10
0.0
 20
0.0
 30
0.0
 70
   128
 62
  9
 71
 -51
 72
 -52
 73
 -16
  0
VERTEX
  8
72OFGO3D01_WP__COVER__233
 10
0.0
 20
0.0
 30
0.0
 70
   128
 62
  9
 71
  51
 72
  50
 73
  17
  0
VERTEX
  8
72OFGO3D01_WP__COVER__233
 10
0.0
 20
0.0
 30
0.0
 70
   128
 62
  9
 71
 -17
 72
 -50
 73
 -51
  0
VERTEX
  8
72OFGO3D01_WP__COVER__233
 10
0.0
 20
0.0
 30
0.0
 70
   128
 62
  9
 71
  17
 72
  50
 73
  23
  0
VERTEX
  8
72OFGO3D01_WP__COVER__233
 10
0.0
 20
0.0
 30
0.0
 70
   128
 62
  9
 71
 -23
 72
 -50
 73
 -17
  0
VERTEX
  8
72OFGO3D01_WP__COVER__233
 10
0.0
 20
0.0
 30
0.0
 70
   128
 62
  9
 71
  16
 72
  27
 73
  52
  0
VERTEX
  8
72OFGO3D01_WP__COVER__233
 10
0.0
 20
0.0
 30
0.0
 70
   128
 62
  9
 71
 -52
 72
 -27
 73
 -16
  0
VERTEX
  8
72OFGO3D01_WP__COVER__233
 10
0.0
 20
0.0
 30
0.0
 70
   128
 62
  9
 71
  27
 72
  53
 73
  52
  0
VERTEX
  8
72OFGO3D01_WP__COVER__233
 10
0.0
 20
0.0
 30
0.0
 70
   128
 62
  9
 71
 -52
 72
 -53
 73
 -27
  0
VERTEX
  8
72OFGO3D01_WP__COVER__233
 10
0.0
 20
0.0
 30
0.0
 70
   128
 62
  9
 71
  27
 72
  39
 73
  53
  0
VERTEX
  8
72OFGO3D01_WP__COVER__233
 10
0.0
 20
0.0
 30
0.0
 70
   128
 62
  9
 71
 -53
 72
 -39
 73
 -27
  0
VERTEX
  8
72OFGO3D01_WP__COVER__233
 10
0.0
 20
0.0
 30
0.0
 70
   128
 62
  9
 71
  53
 72
  39
 73
  54
  0
VERTEX
  8
72OFGO3D01_WP__COVER__233
 10
0.0
 20
0.0
 30
0.0
 70
   128
 62
  9
 71
 -54
 72
 -39
 73
 -53
  0
VERTEX
  8
72OFGO3D01_WP__COVER__233
 10
0.0
 20
0.0
 30
0.0
 70
   128
 62
  9
 71
  31
 72
  55
 73
  41
  0
VERTEX
  8
72OFGO3D01_WP__COVER__233
 10
0.0
 20
0.0
 30
0.0
 70
   128
 62
  9
 71
 -41
 72
 -55
 73
 -31
  0
VERTEX
  8
72OFGO3D01_WP__COVER__233
 10
0.0
 20
0.0
 30
0.0
 70
   128
 62
  9
 71
  31
 72
  56
 73
  55
  0
VERTEX
  8
72OFGO3D01_WP__COVER__233
 10
0.0
 20
0.0
 30
0.0
 70
   128
 62
  9
 71
 -55
 72
 -56
 73
 -31
  0
VERTEX
  8
72OFGO3D01_WP__COVER__233
 10
0.0
 20
0.0
 30
0.0
 70
   128
 62
  9
 71
  55
 72
  54
 73
  41
  0
VERTEX
  8
72OFGO3D01_WP__COVER__233
 10
0.0
 20
0.0
 30
0.0
 70
   128
 62
  9
 71
 -41
 72
 -54
 73
 -55
  0
VERTEX
  8
72OFGO3D01_WP__COVER__233
 10
0.0
 20
0.0
 30
0.0
 70
   128
 62
  9
 71
  41
 72
  54
 73
  39
  0
VERTEX
  8
72OFGO3D01_WP__COVER__233
 10
0.0
 20
0.0
 30
0.0
 70
   128
 62
  9
 71
 -39
 72
 -54
 73
 -41
  0
VERTEX
  8
72OFGO3D01_WP__COVER__233
 10
0.0
 20
0.0
 30
0.0
 70
   128
 62
  9
 71
  33
 72
  57
 73
  31
  0
VERTEX
  8
72OFGO3D01_WP__COVER__233
 10
0.0
 20
0.0
 30
0.0
 70
   128
 62
  9
 71
 -31
 72
 -57
 73
 -33
  0
VERTEX
  8
72OFGO3D01_WP__COVER__233
 10
0.0
 20
0.0
 30
0.0
 70
   128
 62
  9
 71
  57
 72
  56
 73
  31
  0
VERTEX
  8
72OFGO3D01_WP__COVER__233
 10
0.0
 20
0.0
 30
0.0
 70
   128
 62
  9
 71
 -31
 72
 -56
 73
 -57
  0
VERTEX
  8
72OFGO3D01_WP__COVER__233
 10
0.0
 20
0.0
 30
0.0
 70
   128
 62
  9
 71
  10
 72
  12
 73
  25
  0
VERTEX
  8
72OFGO3D01_WP__COVER__233
 10
0.0
 20
0.0
 30
0.0
 70
   128
 62
  9
 71
 -25
 72
 -12
 73
 -10
  0
VERTEX
  8
72OFGO3D01_WP__COVER__233
 10
0.0
 20
0.0
 30
0.0
 70
   128
 62
  9
 71
  12
 72
  30
 73
  25
  0
VERTEX
  8
72OFGO3D01_WP__COVER__233
 10
0.0
 20
0.0
 30
0.0
 70
   128
 62
  9
 71
 -25
 72
 -30
 73
 -12
  0
VERTEX
  8
72OFGO3D01_WP__COVER__233
 10
0.0
 20
0.0
 30
0.0
 70
   128
 62
  9
 71
  15
 72
  7
 73
  58
  0
VERTEX
  8
72OFGO3D01_WP__COVER__233
 10
0.0
 20
0.0
 30
0.0
 70
   128
 62
  9
 71
 -58
 72
 -7
 73
 -15
  0
VERTEX
  8
72OFGO3D01_WP__COVER__233
 10
0.0
 20
0.0
 30
0.0
 70
   128
 62
  9
 71
  7
 72
  59
 73
  58
  0
VERTEX
  8
72OFGO3D01_WP__COVER__233
 10
0.0
 20
0.0
 30
0.0
 70
   128
 62
  9
 71
 -58
 72
 -59
 73
 -7
  0
VERTEX
  8
72OFGO3D01_WP__COVER__233
 10
0.0
 20
0.0
 30
0.0
 70
   128
 62
  9
 71
  59
 72
  7
 73
  60
  0
VERTEX
  8
72OFGO3D01_WP__COVER__233
 10
0.0
 20
0.0
 30
0.0
 70
   128
 62
  9
 71
 -60
 72
 -7
 73
 -59
  0
VERTEX
  8
72OFGO3D01_WP__COVER__233
 10
0.0
 20
0.0
 30
0.0
 70
   128
 62
  9
 71
  2
 72
  61
 73
  8
  0
VERTEX
  8
72OFGO3D01_WP__COVER__233
 10
0.0
 20
0.0
 30
0.0
 70
   128
 62
  9
 71
 -8
 72
 -61
 73
 -2
  0
VERTEX
  8
72OFGO3D01_WP__COVER__233
 10
0.0
 20
0.0
 30
0.0
 70
   128
 62
  9
 71
  1
 72
  62
 73
  2
  0
VERTEX
  8
72OFGO3D01_WP__COVER__233
 10
0.0
 20
0.0
 30
0.0
 70
   128
 62
  9
 71
 -2
 72
 -62
 73
 -1
  0
VERTEX
  8
72OFGO3D01_WP__COVER__233
 10
0.0
 20
0.0
 30
0.0
 70
   128
 62
  9
 71
  62
 72
  61
 73
  2
  0
VERTEX
  8
72OFGO3D01_WP__COVER__233
 10
0.0
 20
0.0
 30
0.0
 70
   128
 62
  9
 71
 -2
 72
 -61
 73
 -62
  0
VERTEX
  8
72OFGO3D01_WP__COVER__233
 10
0.0
 20
0.0
 30
0.0
 70
   128
 62
  9
 71
  61
 72
  60
 73
  8
  0
VERTEX
  8
72OFGO3D01_WP__COVER__233
 10
0.0
 20
0.0
 30
0.0
 70
   128
 62
  9
 71
 -8
 72
 -60
 73
 -61
  0
VERTEX
  8
72OFGO3D01_WP__COVER__233
 10
0.0
 20
0.0
 30
0.0
 70
   128
 62
  9
 71
  8
 72
  60
 73
  7
  0
VERTEX
  8
72OFGO3D01_WP__COVER__233
 10
0.0
 20
0.0
 30
0.0
 70
   128
 62
  9
 71
 -7
 72
 -60
 73
 -8
  0
VERTEX
  8
72OFGO3D01_WP__COVER__233
 10
0.0
 20
0.0
 30
0.0
 70
   128
 62
  9
 71
  22
 72
  49
 73
  1
  0
VERTEX
  8
72OFGO3D01_WP__COVER__233
 10
0.0
 20
0.0
 30
0.0
 70
   128
 62
  9
 71
 -1
 72
 -49
 73
 -22
  0
VERTEX
  8
72OFGO3D01_WP__COVER__233
 10
0.0
 20
0.0
 30
0.0
 70
   128
 62
  9
 71
  49
 72
  62
 73
  1
  0
VERTEX
  8
72OFGO3D01_WP__COVER__233
 10
0.0
 20
0.0
 30
0.0
 70
   128
 62
  9
 71
 -1
 72
 -62
 73
 -49
  0
VERTEX
  8
72OFGO3D01_WP__COVER__233
 10
0.0
 20
0.0
 30
0.0
 70
   128
 62
  9
 71
  57
 72
  33
 73
  63
  0
VERTEX
  8
72OFGO3D01_WP__COVER__233
 10
0.0
 20
0.0
 30
0.0
 70
   128
 62
  9
 71
 -63
 72
 -33
 73
 -57
  0
VERTEX
  8
72OFGO3D01_WP__COVER__233
 10
0.0
 20
0.0
 30
0.0
 70
   128
 62
  9
 71
  45
 72
  64
 73
  46
  0
VERTEX
  8
72OFGO3D01_WP__COVER__233
 10
0.0
 20
0.0
 30
0.0
 70
   128
 62
  9
 71
 -46
 72
 -64
 73
 -45
  0
VERTEX
  8
72OFGO3D01_WP__COVER__233
 10
0.0
 20
0.0
 30
0.0
 70
   128
 62
  9
 71
  15
 72
  58
 73
  45
  0
VERTEX
  8
72OFGO3D01_WP__COVER__233
 10
0.0
 20
0.0
 30
0.0
 70
   128
 62
  9
 71
 -45
 72
 -58
 73
 -15
  0
VERTEX
  8
72OFGO3D01_WP__COVER__233
 10
0.0
 20
0.0
 30
0.0
 70
   128
 62
  9
 71
  58
 72
  64
 73
  45
  0
VERTEX
  8
72OFGO3D01_WP__COVER__233
 10
0.0
 20
0.0
 30
0.0
 70
   128
 62
  9
 71
 -45
 72
 -64
 73
 -58
  0
VERTEX
  8
72OFGO3D01_WP__COVER__233
 10
0.0
 20
0.0
 30
0.0
 70
   128
 62
  9
 71
  64
 72
  63
 73
  46
  0
VERTEX
  8
72OFGO3D01_WP__COVER__233
 10
0.0
 20
0.0
 30
0.0
 70
   128
 62
  9
 71
 -46
 72
 -63
 73
 -64
  0
VERTEX
  8
72OFGO3D01_WP__COVER__233
 10
0.0
 20
0.0
 30
0.0
 70
   128
 62
  9
 71
  46
 72
  63
 73
  33
  0
VERTEX
  8
72OFGO3D01_WP__COVER__233
 10
0.0
 20
0.0
 30
0.0
 70
   128
 62
  9
 71
 -33
 72
 -63
 73
 -46
  0
VERTEX
  8
72OFGO3D01_WP__COVER__233
 10
0.0
 20
0.0
 30
0.0
 70
   128
 62
  9
 71
  55
 72
  56
 73
  53
  0
VERTEX
  8
72OFGO3D01_WP__COVER__233
 10
0.0
 20
0.0
 30
0.0
 70
   128
 62
  9
 71
 -53
 72
 -56
 73
 -55
  0
VERTEX
  8
72OFGO3D01_WP__COVER__233
 10
0.0
 20
0.0
 30
0.0
 70
   128
 62
  9
 71
  55
 72
  53
 73
  54
  0
VERTEX
  8
72OFGO3D01_WP__COVER__233
 10
0.0
 20
0.0
 30
0.0
 70
   128
 62
  9
 71
 -54
 72
 -53
 73
 -55
  0
VERTEX
  8
72OFGO3D01_WP__COVER__233
 10
0.0
 20
0.0
 30
0.0
 70
   128
 62
  9
 71
  63
 72
  58
 73
  57
  0
VERTEX
  8
72OFGO3D01_WP__COVER__233
 10
0.0
 20
0.0
 30
0.0
 70
   128
 62
  9
 71
 -57
 72
 -58
 73
 -63
  0
VERTEX
  8
72OFGO3D01_WP__COVER__233
 10
0.0
 20
0.0
 30
0.0
 70
   128
 62
  9
 71
  63
 72
  64
 73
  58
  0
VERTEX
  8
72OFGO3D01_WP__COVER__233
 10
0.0
 20
0.0
 30
0.0
 70
   128
 62
  9
 71
 -58
 72
 -64
 73
 -63
  0
VERTEX
  8
72OFGO3D01_WP__COVER__233
 10
0.0
 20
0.0
 30
0.0
 70
   128
 62
  9
 71
  59
 72
  62
 73
  58
  0
VERTEX
  8
72OFGO3D01_WP__COVER__233
 10
0.0
 20
0.0
 30
0.0
 70
   128
 62
  9
 71
 -58
 72
 -62
 73
 -59
  0
VERTEX
  8
72OFGO3D01_WP__COVER__233
 10
0.0
 20
0.0
 30
0.0
 70
   128
 62
  9
 71
  60
 72
  61
 73
  59
  0
VERTEX
  8
72OFGO3D01_WP__COVER__233
 10
0.0
 20
0.0
 30
0.0
 70
   128
 62
  9
 71
 -59
 72
 -61
 73
 -60
  0
VERTEX
  8
72OFGO3D01_WP__COVER__233
 10
0.0
 20
0.0
 30
0.0
 70
   128
 62
  9
 71
  61
 72
  62
 73
  59
  0
VERTEX
  8
72OFGO3D01_WP__COVER__233
 10
0.0
 20
0.0
 30
0.0
 70
   128
 62
  9
 71
 -59
 72
 -62
 73
 -61
  0
VERTEX
  8
72OFGO3D01_WP__COVER__233
 10
0.0
 20
0.0
 30
0.0
 70
   128
 62
  9
 71
  62
 72
  49
 73
  58
  0
VERTEX
  8
72OFGO3D01_WP__COVER__233
 10
0.0
 20
0.0
 30
0.0
 70
   128
 62
  9
 71
 -58
 72
 -49
 73
 -62
  0
VERTEX
  8
72OFGO3D01_WP__COVER__233
 10
0.0
 20
0.0
 30
0.0
 70
   128
 62
  9
 71
  50
 72
  52
 73
  49
  0
VERTEX
  8
72OFGO3D01_WP__COVER__233
 10
0.0
 20
0.0
 30
0.0
 70
   128
 62
  9
 71
 -49
 72
 -52
 73
 -50
  0
VERTEX
  8
72OFGO3D01_WP__COVER__233
 10
0.0
 20
0.0
 30
0.0
 70
   128
 62
  9
 71
  50
 72
  51
 73
  52
  0
VERTEX
  8
72OFGO3D01_WP__COVER__233
 10
0.0
 20
0.0
 30
0.0
 70
   128
 62
  9
 71
 -52
 72
 -51
 73
 -50
  0
VERTEX
  8
72OFGO3D01_WP__COVER__233
 10
0.0
 20
0.0
 30
0.0
 70
   128
 62
  9
 71
  52
 72
  53
 73
  49
  0
VERTEX
  8
72OFGO3D01_WP__COVER__233
 10
0.0
 20
0.0
 30
0.0
 70
   128
 62
  9
 71
 -49
 72
 -53
 73
 -52
  0
VERTEX
  8
72OFGO3D01_WP__COVER__233
 10
0.0
 20
0.0
 30
0.0
 70
   128
 62
  9
 71
  49
 72
  53
 73
  58
  0
VERTEX
  8
72OFGO3D01_WP__COVER__233
 10
0.0
 20
0.0
 30
0.0
 70
   128
 62
  9
 71
 -58
 72
 -53
 73
 -49
  0
VERTEX
  8
72OFGO3D01_WP__COVER__233
 10
0.0
 20
0.0
 30
0.0
 70
   128
 62
  9
 71
  57
 72
  58
 73
  53
  0
VERTEX
  8
72OFGO3D01_WP__COVER__233
 10
0.0
 20
0.0
 30
0.0
 70
   128
 62
  9
 71
 -53
 72
 -58
 73
 -57
  0
VERTEX
  8
72OFGO3D01_WP__COVER__233
 10
0.0
 20
0.0
 30
0.0
 70
   128
 62
  9
 71
  57
 72
  53
 73
  56
  0
VERTEX
  8
72OFGO3D01_WP__COVER__233
 10
0.0
 20
0.0
 30
0.0
 70
   128
 62
  9
 71
 -56
 72
 -53
 73
 -57
  0
SEQEND
  0
ENDBLK
  8
0
  0
BLOCK
  8
0
  2
OB__000008
 70
    64
 10
0.0
 20
0.0
 30
0.0
  3
OB__000008
  0
INSERT
  8
72OFGO3D01_WP__COVER__233
  2
OB__000007
 10
0
 20
0.0255
 30
1.129
 41
1
 42
1
 43
1
  0
ENDBLK
  8
0
  0
BLOCK
  8
0
  2
OB__000009
 70
    64
 10
0.0
 20
0.0
 30
0.0
  3
OB__000009
  0
INSERT
  8
72OFGO3D01_WP__COVER__233
  2
OB__000007
 10
1.4
 20
0.0255
 30
1.129
 41
-1
 42
1
 43
1
  0
ENDBLK
  8
0
  0
BLOCK
  8
0
  2
OB__000010
 70
    64
 10
0.0
 20
0.0
 30
0.0
  3
OB__000010
  0
INSERT
  8
72OFGO3D01_ANY
  2
OB__000001
 10
0.0
 20
0.0
 30
0.0
  0
INSERT
  8
72OFGO3D01_WP__FRAME__233
  2
OB__000003
 10
0.0
 20
0.0
 30
0.0
  0
INSERT
  8
72OFGO3D01_WP__CONNECTOR__119
  2
OB__000005
 10
0.0
 20
0.0
 30
0.0
  0
INSERT
  8
72OFGO3D01_WP__CONNECTOR__119
  2
OB__000006
 10
0.0
 20
0.0
 30
0.0
  0
INSERT
  8
72OFGO3D01_WP__COVER__233
  2
OB__000008
 10
0.0
 20
0.0
 30
0.0
  0
INSERT
  8
72OFGO3D01_WP__COVER__233
  2
OB__000009
 10
0.0
 20
0.0
 30
0.0
  0
ENDBLK
  8
0
  0
BLOCK
  8
0
  2
OB__000011
 70
    64
 10
0.0
 20
0.0
 30
0.0
  3
OB__000011
  0
INSERT
  8
72OFGO3D01_ANY
  2
OB__000010
 10
0.0
 20
0.0
 30
0.0
  0
ENDBLK
  8
0
  0
BLOCK
  8
0
  2
OB2D__000012
 70
    64
 10
0.0
 20
0.0
 30
0.0
  3
OB2D__000012
  0
LINE
  8
DEFAULT
  6
DASHED
 48
0.1
 62
1
 10
-0.05
 20
-0.084409
 30
0
 11
1.45
 21
-0.084409
 31
0
  0
LINE
  8
DEFAULT
  6
DASHED
 48
0.1
 62
1
 10
1.4
 20
-0.134409
 30
0
 11
1.4
 21
0.0755
 31
0
  0
LINE
  8
DEFAULT
  6
DASHED
 48
0.1
 62
1
 10
1.45
 20
0.0255
 30
0
 11
-0.05
 21
0.0255
 31
0
  0
LINE
  8
DEFAULT
  6
DASHED
 48
0.1
 62
1
 10
0
 20
0.0755
 30
0
 11
0
 21
-0.134409
 31
0
  0
POLYLINE
  8
DEFAULT
 62
1
 66
     1
 70
     0
 10
0.0
 20
0.0
 30
0.0
  0
VERTEX
  8
DEFAULT
 10
0.494286
 20
0.0940714
 30
0
  0
VERTEX
  8
DEFAULT
 10
0.5
 20
0.0969286
 30
0
  0
VERTEX
  8
DEFAULT
 10
0.508571
 20
0.1055
 30
0
  0
VERTEX
  8
DEFAULT
 10
0.508571
 20
0.0455
 30
0
  0
SEQEND
  0
POLYLINE
  8
DEFAULT
 62
1
 66
     1
 70
     0
 10
0.0
 20
0.0
 30
0.0
  0
VERTEX
  8
DEFAULT
 10
0.571429
 20
0.1055
 30
0
  0
VERTEX
  8
DEFAULT
 10
0.542857
 20
0.0655
 30
0
  0
VERTEX
  8
DEFAULT
 10
0.585714
 20
0.0655
 30
0
  0
SEQEND
  0
POLYLINE
  8
DEFAULT
 62
1
 66
     1
 70
     0
 10
0.0
 20
0.0
 30
0.0
  0
VERTEX
  8
DEFAULT
 10
0.571429
 20
0.1055
 30
0
  0
VERTEX
  8
DEFAULT
 10
0.571429
 20
0.0455
 30
0
  0
SEQEND
  0
POLYLINE
  8
DEFAULT
 62
1
 66
     1
 70
     0
 10
0.0
 20
0.0
 30
0.0
  0
VERTEX
  8
DEFAULT
 10
0.617143
 20
0.1055
 30
0
  0
VERTEX
  8
DEFAULT
 10
0.608571
 20
0.102643
 30
0
  0
VERTEX
  8
DEFAULT
 10
0.602857
 20
0.0940714
 30
0
  0
VERTEX
  8
DEFAULT
 10
0.6
 20
0.0797857
 30
0
  0
VERTEX
  8
DEFAULT
 10
0.6
 20
0.0712143
 30
0
  0
VERTEX
  8
DEFAULT
 10
0.602857
 20
0.0569286
 30
0
  0
VERTEX
  8
DEFAULT
 10
0.608571
 20
0.0483571
 30
0
  0
VERTEX
  8
DEFAULT
 10
0.617143
 20
0.0455
 30
0
  0
VERTEX
  8
DEFAULT
 10
0.622857
 20
0.0455
 30
0
  0
VERTEX
  8
DEFAULT
 10
0.631429
 20
0.0483571
 30
0
  0
VERTEX
  8
DEFAULT
 10
0.637143
 20
0.0569286
 30
0
  0
VERTEX
  8
DEFAULT
 10
0.64
 20
0.0712143
 30
0
  0
VERTEX
  8
DEFAULT
 10
0.64
 20
0.0797857
 30
0
  0
VERTEX
  8
DEFAULT
 10
0.637143
 20
0.0940714
 30
0
  0
VERTEX
  8
DEFAULT
 10
0.631429
 20
0.102643
 30
0
  0
VERTEX
  8
DEFAULT
 10
0.622857
 20
0.1055
 30
0
  0
VERTEX
  8
DEFAULT
 10
0.617143
 20
0.1055
 30
0
  0
SEQEND
  0
POLYLINE
  8
DEFAULT
 62
1
 66
     1
 70
     0
 10
0.0
 20
0.0
 30
0.0
  0
VERTEX
  8
DEFAULT
 10
0.674286
 20
0.1055
 30
0
  0
VERTEX
  8
DEFAULT
 10
0.665714
 20
0.102643
 30
0
  0
VERTEX
  8
DEFAULT
 10
0.66
 20
0.0940714
 30
0
  0
VERTEX
  8
DEFAULT
 10
0.657143
 20
0.0797857
 30
0
  0
VERTEX
  8
DEFAULT
 10
0.657143
 20
0.0712143
 30
0
  0
VERTEX
  8
DEFAULT
 10
0.66
 20
0.0569286
 30
0
  0
VERTEX
  8
DEFAULT
 10
0.665714
 20
0.0483571
 30
0
  0
VERTEX
  8
DEFAULT
 10
0.674286
 20
0.0455
 30
0
  0
VERTEX
  8
DEFAULT
 10
0.68
 20
0.0455
 30
0
  0
VERTEX
  8
DEFAULT
 10
0.688571
 20
0.0483571
 30
0
  0
VERTEX
  8
DEFAULT
 10
0.694286
 20
0.0569286
 30
0
  0
VERTEX
  8
DEFAULT
 10
0.697143
 20
0.0712143
 30
0
  0
VERTEX
  8
DEFAULT
 10
0.697143
 20
0.0797857
 30
0
  0
VERTEX
  8
DEFAULT
 10
0.694286
 20
0.0940714
 30
0
  0
VERTEX
  8
DEFAULT
 10
0.688571
 20
0.102643
 30
0
  0
VERTEX
  8
DEFAULT
 10
0.68
 20
0.1055
 30
0
  0
VERTEX
  8
DEFAULT
 10
0.674286
 20
0.1055
 30
0
  0
SEQEND
  0
POLYLINE
  8
DEFAULT
 62
1
 66
     1
 70
     0
 10
0.0
 20
0.0
 30
0.0
  0
VERTEX
  8
DEFAULT
 10
0.762857
 20
0.0855
 30
0
  0
VERTEX
  8
DEFAULT
 10
0.762857
 20
0.0455
 30
0
  0
SEQEND
  0
POLYLINE
  8
DEFAULT
 62
1
 66
     1
 70
     0
 10
0.0
 20
0.0
 30
0.0
  0
VERTEX
  8
DEFAULT
 10
0.762857
 20
0.0740714
 30
0
  0
VERTEX
  8
DEFAULT
 10
0.771429
 20
0.0826429
 30
0
  0
VERTEX
  8
DEFAULT
 10
0.777143
 20
0.0855
 30
0
  0
VERTEX
  8
DEFAULT
 10
0.785714
 20
0.0855
 30
0
  0
VERTEX
  8
DEFAULT
 10
0.791429
 20
0.0826429
 30
0
  0
VERTEX
  8
DEFAULT
 10
0.794286
 20
0.0740714
 30
0
  0
VERTEX
  8
DEFAULT
 10
0.794286
 20
0.0455
 30
0
  0
SEQEND
  0
POLYLINE
  8
DEFAULT
 62
1
 66
     1
 70
     0
 10
0.0
 20
0.0
 30
0.0
  0
VERTEX
  8
DEFAULT
 10
0.794286
 20
0.0740714
 30
0
  0
VERTEX
  8
DEFAULT
 10
0.802857
 20
0.0826429
 30
0
  0
VERTEX
  8
DEFAULT
 10
0.808571
 20
0.0855
 30
0
  0
VERTEX
  8
DEFAULT
 10
0.817143
 20
0.0855
 30
0
  0
VERTEX
  8
DEFAULT
 10
0.822857
 20
0.0826429
 30
0
  0
VERTEX
  8
DEFAULT
 10
0.825714
 20
0.0740714
 30
0
  0
VERTEX
  8
DEFAULT
 10
0.825714
 20
0.0455
 30
0
  0
SEQEND
  0
POLYLINE
  8
DEFAULT
 62
1
 66
     1
 70
     0
 10
0.0
 20
0.0
 30
0.0
  0
VERTEX
  8
DEFAULT
 10
0.848571
 20
0.0855
 30
0
  0
VERTEX
  8
DEFAULT
 10
0.848571
 20
0.0455
 30
0
  0
SEQEND
  0
POLYLINE
  8
DEFAULT
 62
1
 66
     1
 70
     0
 10
0.0
 20
0.0
 30
0.0
  0
VERTEX
  8
DEFAULT
 10
0.848571
 20
0.0740714
 30
0
  0
VERTEX
  8
DEFAULT
 10
0.857143
 20
0.0826429
 30
0
  0
VERTEX
  8
DEFAULT
 10
0.862857
 20
0.0855
 30
0
  0
VERTEX
  8
DEFAULT
 10
0.871429
 20
0.0855
 30
0
  0
VERTEX
  8
DEFAULT
 10
0.877143
 20
0.0826429
 30
0
  0
VERTEX
  8
DEFAULT
 10
0.88
 20
0.0740714
 30
0
  0
VERTEX
  8
DEFAULT
 10
0.88
 20
0.0455
 30
0
  0
SEQEND
  0
POLYLINE
  8
DEFAULT
 62
1
 66
     1
 70
     0
 10
0.0
 20
0.0
 30
0.0
  0
VERTEX
  8
DEFAULT
 10
0.88
 20
0.0740714
 30
0
  0
VERTEX
  8
DEFAULT
 10
0.888571
 20
0.0826429
 30
0
  0
VERTEX
  8
DEFAULT
 10
0.894286
 20
0.0855
 30
0
  0
VERTEX
  8
DEFAULT
 10
0.902857
 20
0.0855
 30
0
  0
VERTEX
  8
DEFAULT
 10
0.908571
 20
0.0826429
 30
0
  0
VERTEX
  8
DEFAULT
 10
0.911429
 20
0.0740714
 30
0
  0
VERTEX
  8
DEFAULT
 10
0.911429
 20
0.0455
 30
0
  0
SEQEND
  0
POLYLINE
  8
DEFAULT
 62
1
 66
     1
 70
     0
 10
0.0
 20
0.0
 30
0.0
  0
VERTEX
  8
DEFAULT
 10
1.46857
 20
0.148143
 30
0
  0
VERTEX
  8
DEFAULT
 10
1.47143
 20
0.142429
 30
0
  0
VERTEX
  8
DEFAULT
 10
1.48
 20
0.133857
 30
0
  0
VERTEX
  8
DEFAULT
 10
1.42
 20
0.133857
 30
0
  0
SEQEND
  0
POLYLINE
  8
DEFAULT
 62
1
 66
     1
 70
     0
 10
0.0
 20
0.0
 30
0.0
  0
VERTEX
  8
DEFAULT
 10
1.48
 20
0.0824286
 30
0
  0
VERTEX
  8
DEFAULT
 10
1.47714
 20
0.091
 30
0
  0
VERTEX
  8
DEFAULT
 10
1.46857
 20
0.0967143
 30
0
  0
VERTEX
  8
DEFAULT
 10
1.45429
 20
0.0995714
 30
0
  0
VERTEX
  8
DEFAULT
 10
1.44571
 20
0.0995714
 30
0
  0
VERTEX
  8
DEFAULT
 10
1.43143
 20
0.0967143
 30
0
  0
VERTEX
  8
DEFAULT
 10
1.42286
 20
0.091
 30
0
  0
VERTEX
  8
DEFAULT
 10
1.42
 20
0.0824286
 30
0
  0
VERTEX
  8
DEFAULT
 10
1.42
 20
0.0767143
 30
0
  0
VERTEX
  8
DEFAULT
 10
1.42286
 20
0.0681429
 30
0
  0
VERTEX
  8
DEFAULT
 10
1.43143
 20
0.0624286
 30
0
  0
VERTEX
  8
DEFAULT
 10
1.44571
 20
0.0595714
 30
0
  0
VERTEX
  8
DEFAULT
 10
1.45429
 20
0.0595714
 30
0
  0
VERTEX
  8
DEFAULT
 10
1.46857
 20
0.0624286
 30
0
  0
VERTEX
  8
DEFAULT
 10
1.47714
 20
0.0681429
 30
0
  0
VERTEX
  8
DEFAULT
 10
1.48
 20
0.0767143
 30
0
  0
VERTEX
  8
DEFAULT
 10
1.48
 20
0.0824286
 30
0
  0
SEQEND
  0
POLYLINE
  8
DEFAULT
 62
1
 66
     1
 70
     0
 10
0.0
 20
0.0
 30
0.0
  0
VERTEX
  8
DEFAULT
 10
1.46
 20
0.00528571
 30
0
  0
VERTEX
  8
DEFAULT
 10
1.45143
 20
0.00814286
 30
0
  0
VERTEX
  8
DEFAULT
 10
1.44571
 20
0.0138571
 30
0
  0
VERTEX
  8
DEFAULT
 10
1.44286
 20
0.0224286
 30
0
  0
VERTEX
  8
DEFAULT
 10
1.44286
 20
0.0252857
 30
0
  0
VERTEX
  8
DEFAULT
 10
1.44571
 20
0.0338571
 30
0
  0
VERTEX
  8
DEFAULT
 10
1.45143
 20
0.0395714
 30
0
  0
VERTEX
  8
DEFAULT
 10
1.46
 20
0.0424286
 30
0
  0
VERTEX
  8
DEFAULT
 10
1.46286
 20
0.0424286
 30
0
  0
VERTEX
  8
DEFAULT
 10
1.47143
 20
0.0395714
 30
0
  0
VERTEX
  8
DEFAULT
 10
1.47714
 20
0.0338571
 30
0
  0
VERTEX
  8
DEFAULT
 10
1.48
 20
0.0252857
 30
0
  0
VERTEX
  8
DEFAULT
 10
1.48
 20
0.0224286
 30
0
  0
VERTEX
  8
DEFAULT
 10
1.47714
 20
0.0138571
 30
0
  0
VERTEX
  8
DEFAULT
 10
1.47143
 20
0.00814286
 30
0
  0
VERTEX
  8
DEFAULT
 10
1.46
 20
0.00528571
 30
0
  0
VERTEX
  8
DEFAULT
 10
1.44571
 20
0.00528571
 30
0
  0
VERTEX
  8
DEFAULT
 10
1.43143
 20
0.00814286
 30
0
  0
VERTEX
  8
DEFAULT
 10
1.42286
 20
0.0138571
 30
0
  0
VERTEX
  8
DEFAULT
 10
1.42
 20
0.0224286
 30
0
  0
VERTEX
  8
DEFAULT
 10
1.42
 20
0.0281429
 30
0
  0
VERTEX
  8
DEFAULT
 10
1.42286
 20
0.0367143
 30
0
  0
VERTEX
  8
DEFAULT
 10
1.42857
 20
0.0395714
 30
0
  0
SEQEND
  0
POLYLINE
  8
DEFAULT
 62
1
 66
     1
 70
     0
 10
0.0
 20
0.0
 30
0.0
  0
VERTEX
  8
DEFAULT
 10
1.46
 20
-0.0632857
 30
0
  0
VERTEX
  8
DEFAULT
 10
1.42
 20
-0.0632857
 30
0
  0
SEQEND
  0
POLYLINE
  8
DEFAULT
 62
1
 66
     1
 70
     0
 10
0.0
 20
0.0
 30
0.0
  0
VERTEX
  8
DEFAULT
 10
1.44857
 20
-0.0632857
 30
0
  0
VERTEX
  8
DEFAULT
 10
1.45714
 20
-0.0718571
 30
0
  0
VERTEX
  8
DEFAULT
 10
1.46
 20
-0.0775714
 30
0
  0
VERTEX
  8
DEFAULT
 10
1.46
 20
-0.0861429
 30
0
  0
VERTEX
  8
DEFAULT
 10
1.45714
 20
-0.0918571
 30
0
  0
VERTEX
  8
DEFAULT
 10
1.44857
 20
-0.0947143
 30
0
  0
VERTEX
  8
DEFAULT
 10
1.42
 20
-0.0947143
 30
0
  0
SEQEND
  0
POLYLINE
  8
DEFAULT
 62
1
 66
     1
 70
     0
 10
0.0
 20
0.0
 30
0.0
  0
VERTEX
  8
DEFAULT
 10
1.44857
 20
-0.0947143
 30
0
  0
VERTEX
  8
DEFAULT
 10
1.45714
 20
-0.103286
 30
0
  0
VERTEX
  8
DEFAULT
 10
1.46
 20
-0.109
 30
0
  0
VERTEX
  8
DEFAULT
 10
1.46
 20
-0.117571
 30
0
  0
VERTEX
  8
DEFAULT
 10
1.45714
 20
-0.123286
 30
0
  0
VERTEX
  8
DEFAULT
 10
1.44857
 20
-0.126143
 30
0
  0
VERTEX
  8
DEFAULT
 10
1.42
 20
-0.126143
 30
0
  0
SEQEND
  0
POLYLINE
  8
DEFAULT
 62
1
 66
     1
 70
     0
 10
0.0
 20
0.0
 30
0.0
  0
VERTEX
  8
DEFAULT
 10
1.46
 20
-0.149
 30
0
  0
VERTEX
  8
DEFAULT
 10
1.42
 20
-0.149
 30
0
  0
SEQEND
  0
POLYLINE
  8
DEFAULT
 62
1
 66
     1
 70
     0
 10
0.0
 20
0.0
 30
0.0
  0
VERTEX
  8
DEFAULT
 10
1.44857
 20
-0.149
 30
0
  0
VERTEX
  8
DEFAULT
 10
1.45714
 20
-0.157571
 30
0
  0
VERTEX
  8
DEFAULT
 10
1.46
 20
-0.163286
 30
0
  0
VERTEX
  8
DEFAULT
 10
1.46
 20
-0.171857
 30
0
  0
VERTEX
  8
DEFAULT
 10
1.45714
 20
-0.177571
 30
0
  0
VERTEX
  8
DEFAULT
 10
1.44857
 20
-0.180429
 30
0
  0
VERTEX
  8
DEFAULT
 10
1.42
 20
-0.180429
 30
0
  0
SEQEND
  0
POLYLINE
  8
DEFAULT
 62
1
 66
     1
 70
     0
 10
0.0
 20
0.0
 30
0.0
  0
VERTEX
  8
DEFAULT
 10
1.44857
 20
-0.180429
 30
0
  0
VERTEX
  8
DEFAULT
 10
1.45714
 20
-0.189
 30
0
  0
VERTEX
  8
DEFAULT
 10
1.46
 20
-0.194714
 30
0
  0
VERTEX
  8
DEFAULT
 10
1.46
 20
-0.203286
 30
0
  0
VERTEX
  8
DEFAULT
 10
1.45714
 20
-0.209
 30
0
  0
VERTEX
  8
DEFAULT
 10
1.44857
 20
-0.211857
 30
0
  0
VERTEX
  8
DEFAULT
 10
1.42
 20
-0.211857
 30
0
  0
SEQEND
  0
LINE
  8
72_GSX_ST_D2SNAP
  6
CONTINUOUS
 10
0
 20
-0.075
 30
0
 11
0
 21
0.075
 31
0
  0
LINE
  8
72_GSX_ST_D2SNAP
  6
CONTINUOUS
 10
-0.075
 20
0
 30
0
 11
0.075
 21
0
 31
0
  0
CIRCLE
  8
72_GSX_ST_D2SNAP
  6
CONTINUOUS
 10
0
 20
0
 30
0
 40
0.035
  0
POLYLINE
  8
72_GSX_ST_D2_GRAPHIK
 66
     1
 70
     0
 10
0.0
 20
0.0
 30
0.0
  0
VERTEX
  8
72_GSX_ST_D2_GRAPHIK
 10
0
 20
0.0255
 30
0
  0
VERTEX
  8
72_GSX_ST_D2_GRAPHIK
 10
1.4
 20
0.0255
 30
0
  0
VERTEX
  8
72_GSX_ST_D2_GRAPHIK
 10
1.4
 20
0.0065
 30
0
  0
VERTEX
  8
72_GSX_ST_D2_GRAPHIK
 10
0
 20
0.0065
 30
0
  0
VERTEX
  8
72_GSX_ST_D2_GRAPHIK
 10
0
 20
0.0255
 30
0
  0
SEQEND
  0
LINE
  8
72_GSX_ST_D2DETAIL_DETAIL
  6
CONTINUOUS
 10
0.18
 20
0.0065
 30
0
 11
0.22
 21
0.0065
 31
0
  0
POLYLINE
  8
72_GSX_ST_D2DETAIL_DETAIL
 66
     1
 70
     0
 10
0.0
 20
0.0
 30
0.0
  0
VERTEX
  8
72_GSX_ST_D2DETAIL_DETAIL
 10
0.18
 20
-0.062904
 30
0
  0
VERTEX
  8
72_GSX_ST_D2DETAIL_DETAIL
 10
0.22
 20
-0.062904
 30
0
  0
SEQEND
  0
POLYLINE
  8
72_GSX_ST_D2DETAIL_DETAIL
 66
     1
 70
     0
 10
0.0
 20
0.0
 30
0.0
  0
VERTEX
  8
72_GSX_ST_D2DETAIL_DETAIL
 10
0.18
 20
-0.0153
 30
0
  0
VERTEX
  8
72_GSX_ST_D2DETAIL_DETAIL
 10
0.22
 20
-0.0153
 30
0
  0
SEQEND
  0
POLYLINE
  8
72_GSX_ST_D2DETAIL_DETAIL
 66
     1
 70
     0
 10
0.0
 20
0.0
 30
0.0
  0
VERTEX
  8
72_GSX_ST_D2DETAIL_DETAIL
 10
0.18
 20
0.0065
 30
0
  0
VERTEX
  8
72_GSX_ST_D2DETAIL_DETAIL
 10
0.18
 20
-0.084409
 30
0
  0
VERTEX
  8
72_GSX_ST_D2DETAIL_DETAIL
 10
0.22
 20
-0.084409
 30
0
  0
VERTEX
  8
72_GSX_ST_D2DETAIL_DETAIL
 10
0.22
 20
0.0065
 30
0
  0
SEQEND
  0
LINE
  8
72_GSX_ST_D2DETAIL_DETAIL
  6
CONTINUOUS
 10
1.18
 20
0.0065
 30
0
 11
1.22
 21
0.0065
 31
0
  0
POLYLINE
  8
72_GSX_ST_D2DETAIL_DETAIL
 66
     1
 70
     0
 10
0.0
 20
0.0
 30
0.0
  0
VERTEX
  8
72_GSX_ST_D2DETAIL_DETAIL
 10
1.18
 20
-0.062904
 30
0
  0
VERTEX
  8
72_GSX_ST_D2DETAIL_DETAIL
 10
1.22
 20
-0.062904
 30
0
  0
SEQEND
  0
POLYLINE
  8
72_GSX_ST_D2DETAIL_DETAIL
 66
     1
 70
     0
 10
0.0
 20
0.0
 30
0.0
  0
VERTEX
  8
72_GSX_ST_D2DETAIL_DETAIL
 10
1.18
 20
-0.0153
 30
0
  0
VERTEX
  8
72_GSX_ST_D2DETAIL_DETAIL
 10
1.22
 20
-0.0153
 30
0
  0
SEQEND
  0
POLYLINE
  8
72_GSX_ST_D2DETAIL_DETAIL
 66
     1
 70
     0
 10
0.0
 20
0.0
 30
0.0
  0
VERTEX
  8
72_GSX_ST_D2DETAIL_DETAIL
 10
1.18
 20
0.0065
 30
0
  0
VERTEX
  8
72_GSX_ST_D2DETAIL_DETAIL
 10
1.18
 20
-0.084409
 30
0
  0
VERTEX
  8
72_GSX_ST_D2DETAIL_DETAIL
 10
1.22
 20
-0.084409
 30
0
  0
VERTEX
  8
72_GSX_ST_D2DETAIL_DETAIL
 10
1.22
 20
0.0065
 30
0
  0
SEQEND
  0
ENDBLK
  8
0
  0
ENDSEC
  0
SECTION
  2
ENTITIES
  0
INSERT
  8
72OFGO3D01_ANY
  2
OB__000011
 10
0.0
 20
0.0
 30
0.0
  0
INSERT
  8
72OFGO2D01_GRAFIK
  2
OB2D__000012
 10
0.0
 20
0.0
 30
0.0
  0
ENDSEC
  0
EOF
