  0
SECTION
  2
HEADER
  9
$ACADVER
  1
AC1009
  9
$INSBASE
 10
0.0
 20
0.0
 30
0.0
  9
$EXTMIN
 10
0
 20
-0.575
 30
0
  9
$EXTMAX
 10
0.371
 20
0
 30
0.26
  0
ENDSEC
  0
SECTION
  2
TABLES
  0
TABLE
  2
LTYPE
 70
     2
  0
LTYPE
  2
CONTINUOUS
 70
    64
  3
________
 72
    65
 73
     0
 40
0.0
  0
LTYPE
  2
DASHED
 70
     0
  3
__ __ __
 72
    65
 73
     2
 40
0.75
 49
0.5
 49
-0.25
  0
LTYPE
  2
DOT
 70
     0
  3
. . . .
 72
    65
 73
     2
 40
0.25
 49
0.0
 49
-0.25
  0
LTYPE
  2
DASHDOT
 70
     0
  3
_ . _ .
 72
    65
 73
     4
 40
1.0
 49
0.5
 49
-0.25
 49
-0.0
 49
-0.25
  0
LTYPE
  2
DASHDOUBLEDOT
 70
     0
  3
__..__..
 72
    65
 73
     6
 40
1.25
 49
0.5
 49
-0.25
 49
-0.0
 49
-0.25
 49
-0.0
 49
-0.25
  0
LTYPE
  2
DASHTRIPLEDOT
 70
     0
  3
__...__...__
 72
    65
 73
     8
 40
1.5
 49
0.5
 49
-0.25
 49
-0.0
 49
-0.25
 49
-0.0
 49
-0.25
 49
-0.0
 49
-0.25
  0
ENDTAB
  0
TABLE
  2
LAYER
 70
    60
  0
LAYER
  2
0
 70
    64
 62
     7
  6
CONTINUOUS
  0
LAYER
  2
72_GSX_BS_D2SNAP
 70
    64
 62
     7
  6
CONTINUOUS
  0
LAYER
  2
72_GSX_BS_D2_SYMBOL
 70
    64
 62
     7
  6
CONTINUOUS
  0
LAYER
  2
72_GSX_BS_D2_GRAPHIK
 70
    64
 62
     7
  6
CONTINUOUS
  0
LAYER
  2
72_GSX_BS_D2_TEXT_DE
 70
    64
 62
     7
  6
CONTINUOUS
  0
LAYER
  2
AttachPoint
 70
    64
 62
     7
  6
CONTINUOUS
  0
LAYER
  2
72_GSX_ZU_D2SNAP
 70
    64
 62
     7
  6
CONTINUOUS
  0
LAYER
  2
72_GSX_ZU_D2DETAIL_DETAIL
 70
    64
 62
     7
  6
CONTINUOUS
  0
LAYER
  2
72_GSX_BS_D2DETAIL_DETAIL
 70
    64
 62
     7
  6
CONTINUOUS
  0
LAYER
  2
72_GSX_ZU_D2_GRAPHIK
 70
    64
 62
     7
  6
CONTINUOUS
  0
LAYER
  2
72_GSX_BE_D2SNAP
 70
    64
 62
     7
  6
CONTINUOUS
  0
LAYER
  2
72_GSX_BE_D2DETAIL_DETAIL
 70
    64
 62
     7
  6
CONTINUOUS
  0
LAYER
  2
72_GSX_BE_D2_GRAPHIK
 70
    64
 62
     7
  6
CONTINUOUS
  0
LAYER
  2
GRAFIKDETAIL
 70
    64
 62
     7
  6
CONTINUOUS
  0
LAYER
  2
GRAFIK
 70
    64
 62
     7
  6
CONTINUOUS
  0
LAYER
  2
FANG
 70
    64
 62
     7
  6
CONTINUOUS
  0
LAYER
  2
72_GSX_SW_D2SNAP
 70
    64
 62
     7
  6
CONTINUOUS
  0
LAYER
  2
72_GSX_SW_D2_GRAPHIK
 70
    64
 62
     7
  6
CONTINUOUS
  0
LAYER
  2
72_GSX_SW_D2_TEXT
 70
    64
 62
     7
  6
CONTINUOUS
  0
LAYER
  2
72_GSX_SW_D2DETAIL_DETAIL
 70
    64
 62
     7
  6
CONTINUOUS
  0
LAYER
  2
0
 70
    64
 62
     7
  6
CONTINUOUS
  0
LAYER
  2
72_GSX_CO_D2SNAP
 70
    64
 62
     7
  6
CONTINUOUS
  0
LAYER
  2
72_GSX_CO_D2_GRAPHIK
 70
    64
 62
     7
  6
CONTINUOUS
  0
LAYER
  2
72_GSX_CO_D2_TEXT_DE
 70
    64
 62
     7
  6
CONTINUOUS
  0
LAYER
  2
72_GSX_CO_D2DETAIL_DETAIL
 70
    64
 62
     7
  6
CONTINUOUS
  0
LAYER
  2
72_GSX_EL_D2_GRAPHIK
 70
    64
 62
     7
  6
CONTINUOUS
  0
LAYER
  2
72_GSX_EL_D2SNAP
 70
    64
 62
     7
  6
CONTINUOUS
  0
LAYER
  2
72_GSX_TH_D2SNAP
 70
    64
 62
     7
  6
CONTINUOUS
  0
LAYER
  2
72_GSX_TH_D2_GRAPHIK
 70
    64
 62
     7
  6
CONTINUOUS
  0
LAYER
  2
72_GSX_TH_D2DETAIL_DETAIL
 70
    64
 62
     7
  6
CONTINUOUS
  0
LAYER
  2
72_GSX_IV_D2SNAP
 70
    64
 62
     7
  6
CONTINUOUS
  0
LAYER
  2
72_GSX_IV_D2DETAIL_DETAIL
 70
    64
 62
     7
  6
CONTINUOUS
  0
LAYER
  2
72_GSX_IV_D2_GRAPHIK
 70
    64
 62
     7
  6
CONTINUOUS
  0
LAYER
  2
72_GSX_ZL_D2_GRAPHIK
 70
    64
 62
     7
  6
CONTINUOUS
  0
LAYER
  2
72_GSX_ZL_D2SNAP
 70
    64
 62
     7
  6
CONTINUOUS
  0
LAYER
  2
72_GSX_LT_D2SNAP
 70
    64
 62
     7
  6
CONTINUOUS
  0
LAYER
  2
72_GSX_LT_D2DETAIL_DETAIL
 70
    64
 62
     7
  6
CONTINUOUS
  0
LAYER
  2
72_GSX_LT_D2_GRAPHIK
 70
    64
 62
     7
  6
CONTINUOUS
  0
LAYER
  2
72_GSX_RS_D2SNAP
 70
    64
 62
     7
  6
CONTINUOUS
  0
LAYER
  2
72_GSX_RS_D2_GRAPHIK
 70
    64
 62
     7
  6
CONTINUOUS
  0
LAYER
  2
72_GSX_RS_D2_TEXT_DE
 70
    64
 62
     7
  6
CONTINUOUS
  0
LAYER
  2
72_GSX_RS_D2_SYMBOL
 70
    64
 62
     7
  6
CONTINUOUS
  0
LAYER
  2
72_GSX_RL_D2SNAP
 70
    64
 62
     7
  6
CONTINUOUS
  0
LAYER
  2
72_GSX_RL_D2DETAIL_DETAIL
 70
    64
 62
     7
  6
CONTINUOUS
  0
LAYER
  2
72_GSX_RL_D2_GRAPHIK
 70
    64
 62
     7
  6
CONTINUOUS
  0
LAYER
  2
72_GSX_ST_D2SNAP
 70
    64
 62
     7
  6
CONTINUOUS
  0
LAYER
  2
72_GSX_ST_D2_GRAPHIK
 70
    64
 62
     7
  6
CONTINUOUS
  0
LAYER
  2
72_GSX_ST_D2DETAIL_DETAIL
 70
    64
 62
     7
  6
CONTINUOUS
  0
LAYER
  2
72_GSX_TT_D2SNAP
 70
    64
 62
     7
  6
CONTINUOUS
  0
LAYER
  2
72_GSX_TT_D2DETAIL_DETAIL
 70
    64
 62
     7
  6
CONTINUOUS
  0
LAYER
  2
72_GSX_TT_D2_GRAPHIK
 70
    64
 62
     7
  6
CONTINUOUS
  0
LAYER
  2
72_GSX_TC_D2SNAP
 70
    64
 62
     7
  6
CONTINUOUS
  0
LAYER
  2
72_GSX_TC_D2DETAIL_DETAIL
 70
    64
 62
     7
  6
CONTINUOUS
  0
LAYER
  2
72_GSX_TC_D2_GRAPHIK
 70
    64
 62
     7
  6
CONTINUOUS
  0
LAYER
  2
72_GSX_WW_D2_GRAPHIK
 70
    64
 62
     7
  6
CONTINUOUS
  0
LAYER
  2
72_GSX_WW_D2SNAP
 70
    64
 62
     7
  6
CONTINUOUS
  0
LAYER
  2
72_GSX_ZL_D2DETAIL_DETAIL
 70
    64
 62
     7
  6
CONTINUOUS
  0
LAYER
  2
72OFGO3D01_ANY
 70
    64
 62
     1
  6
CONTINUOUS
  0
LAYER
  2
72OFGO3D01_ANY
 70
    64
 62
     1
  6
CONTINUOUS
  0
LAYER
  2
72OFGO2D01_GRAFIK
 70
    64
 62
     1
  6
CONTINUOUS
  0
ENDTAB
  0
TABLE
  2
STYLE
 70
     1
  0
STYLE
  2
STANDARD
 70
     0
 40
0.0
 41
1.0
 50
0.0
 71
     0
 42
0.2
  3
txt
  4

  0
ENDTAB
  0
TABLE
  2
APPID
 70
    64
  0
APPID
  2
ACAD
 70
    64
  0
APPID
  2
OFML_10
 70
    64
  0
ENDTAB
  0
ENDSEC
  0
SECTION
  2
BLOCKS
  0
BLOCK
  8
0
  2
OB__000000
 70
    64
 10
0.0
 20
0.0
 30
0.0
  3
OB__000000
  0
POLYLINE
  8
72OFGO3D01_ANY
 66
     1
 70
    64
 71
56
 72
232
 10
0.0
 20
0.0
 30
0.0
  0
VERTEX
  8
72OFGO3D01_ANY
 10
0.003
 20
-0.498
 30
0
 70
    192
  0
VERTEX
  8
72OFGO3D01_ANY
 10
0
 20
-0.498
 30
0
 70
    192
  0
VERTEX
  8
72OFGO3D01_ANY
 10
0.003
 20
-0.495
 30
0
 70
    192
  0
VERTEX
  8
72OFGO3D01_ANY
 10
0
 20
-0.495
 30
0
 70
    192
  0
VERTEX
  8
72OFGO3D01_ANY
 10
0.316
 20
-0.498
 30
0
 70
    192
  0
VERTEX
  8
72OFGO3D01_ANY
 10
0.313
 20
-0.498
 30
0
 70
    192
  0
VERTEX
  8
72OFGO3D01_ANY
 10
0.316
 20
-0.495
 30
0
 70
    192
  0
VERTEX
  8
72OFGO3D01_ANY
 10
0.313
 20
-0.495
 30
0
 70
    192
  0
VERTEX
  8
72OFGO3D01_ANY
 10
0.003
 20
-0.495
 30
0.257
 70
    192
  0
VERTEX
  8
72OFGO3D01_ANY
 10
0.313
 20
-0.495
 30
0.257
 70
    192
  0
VERTEX
  8
72OFGO3D01_ANY
 10
0.003
 20
-0.498
 30
0.257
 70
    192
  0
VERTEX
  8
72OFGO3D01_ANY
 10
0.313
 20
-0.498
 30
0.257
 70
    192
  0
VERTEX
  8
72OFGO3D01_ANY
 10
0.003
 20
-0.495
 30
0.26
 70
    192
  0
VERTEX
  8
72OFGO3D01_ANY
 10
0.313
 20
-0.495
 30
0.26
 70
    192
  0
VERTEX
  8
72OFGO3D01_ANY
 10
0.316
 20
-0.495
 30
0.257
 70
    192
  0
VERTEX
  8
72OFGO3D01_ANY
 10
0
 20
-0.495
 30
0.257
 70
    192
  0
VERTEX
  8
72OFGO3D01_ANY
 10
0
 20
-0.498
 30
0.26
 70
    192
  0
VERTEX
  8
72OFGO3D01_ANY
 10
0.316
 20
-0.498
 30
0.26
 70
    192
  0
VERTEX
  8
72OFGO3D01_ANY
 10
0.316
 20
-0.2505
 30
0.257
 70
    192
  0
VERTEX
  8
72OFGO3D01_ANY
 10
0.316
 20
-0.2475
 30
0.257
 70
    192
  0
VERTEX
  8
72OFGO3D01_ANY
 10
0.316
 20
0
 30
0.26
 70
    192
  0
VERTEX
  8
72OFGO3D01_ANY
 10
0.316
 20
-0.2475
 30
0
 70
    192
  0
VERTEX
  8
72OFGO3D01_ANY
 10
0.316
 20
-0.2505
 30
0
 70
    192
  0
VERTEX
  8
72OFGO3D01_ANY
 10
0.316
 20
-0.003
 30
0.257
 70
    192
  0
VERTEX
  8
72OFGO3D01_ANY
 10
0.316
 20
-0.003
 30
0
 70
    192
  0
VERTEX
  8
72OFGO3D01_ANY
 10
0.316
 20
0
 30
0
 70
    192
  0
VERTEX
  8
72OFGO3D01_ANY
 10
0
 20
0
 30
0.26
 70
    192
  0
VERTEX
  8
72OFGO3D01_ANY
 10
0
 20
-0.2475
 30
0.257
 70
    192
  0
VERTEX
  8
72OFGO3D01_ANY
 10
0
 20
-0.003
 30
0.257
 70
    192
  0
VERTEX
  8
72OFGO3D01_ANY
 10
0
 20
-0.003
 30
0
 70
    192
  0
VERTEX
  8
72OFGO3D01_ANY
 10
0
 20
0
 30
0
 70
    192
  0
VERTEX
  8
72OFGO3D01_ANY
 10
0
 20
-0.2505
 30
0.257
 70
    192
  0
VERTEX
  8
72OFGO3D01_ANY
 10
0
 20
-0.2505
 30
0
 70
    192
  0
VERTEX
  8
72OFGO3D01_ANY
 10
0
 20
-0.2475
 30
0
 70
    192
  0
VERTEX
  8
72OFGO3D01_ANY
 10
0.313
 20
-0.2475
 30
0.26
 70
    192
  0
VERTEX
  8
72OFGO3D01_ANY
 10
0.313
 20
-0.003
 30
0.26
 70
    192
  0
VERTEX
  8
72OFGO3D01_ANY
 10
0.003
 20
-0.2475
 30
0.26
 70
    192
  0
VERTEX
  8
72OFGO3D01_ANY
 10
0.313
 20
-0.2505
 30
0.26
 70
    192
  0
VERTEX
  8
72OFGO3D01_ANY
 10
0.003
 20
-0.003
 30
0.26
 70
    192
  0
VERTEX
  8
72OFGO3D01_ANY
 10
0.003
 20
-0.2505
 30
0.26
 70
    192
  0
VERTEX
  8
72OFGO3D01_ANY
 10
0.003
 20
-0.2505
 30
0
 70
    192
  0
VERTEX
  8
72OFGO3D01_ANY
 10
0.003
 20
-0.2475
 30
0
 70
    192
  0
VERTEX
  8
72OFGO3D01_ANY
 10
0.313
 20
-0.2505
 30
0
 70
    192
  0
VERTEX
  8
72OFGO3D01_ANY
 10
0.313
 20
-0.2475
 30
0
 70
    192
  0
VERTEX
  8
72OFGO3D01_ANY
 10
0.003
 20
-0.2505
 30
0.257
 70
    192
  0
VERTEX
  8
72OFGO3D01_ANY
 10
0.313
 20
-0.2505
 30
0.257
 70
    192
  0
VERTEX
  8
72OFGO3D01_ANY
 10
0.003
 20
-0.2475
 30
0.257
 70
    192
  0
VERTEX
  8
72OFGO3D01_ANY
 10
0.313
 20
-0.2475
 30
0.257
 70
    192
  0
VERTEX
  8
72OFGO3D01_ANY
 10
0.313
 20
-0.003
 30
0.257
 70
    192
  0
VERTEX
  8
72OFGO3D01_ANY
 10
0.003
 20
-0.003
 30
0.257
 70
    192
  0
VERTEX
  8
72OFGO3D01_ANY
 10
0.003
 20
-0.003
 30
0
 70
    192
  0
VERTEX
  8
72OFGO3D01_ANY
 10
0.003
 20
0
 30
0
 70
    192
  0
VERTEX
  8
72OFGO3D01_ANY
 10
0.313
 20
-0.003
 30
0
 70
    192
  0
VERTEX
  8
72OFGO3D01_ANY
 10
0.313
 20
0
 30
0
 70
    192
  0
VERTEX
  8
72OFGO3D01_ANY
 10
0.003
 20
0
 30
0.257
 70
    192
  0
VERTEX
  8
72OFGO3D01_ANY
 10
0.313
 20
0
 30
0.257
 70
    192
  0
VERTEX
  8
72OFGO3D01_ANY
 10
0.0
 20
0.0
 30
0.0
 70
   128
 62
  9
 71
  1
 72
  2
 73
  3
  0
VERTEX
  8
72OFGO3D01_ANY
 10
0.0
 20
0.0
 30
0.0
 70
   128
 62
  9
 71
 -3
 72
 -2
 73
 -1
  0
VERTEX
  8
72OFGO3D01_ANY
 10
0.0
 20
0.0
 30
0.0
 70
   128
 62
  9
 71
  2
 72
  4
 73
  3
  0
VERTEX
  8
72OFGO3D01_ANY
 10
0.0
 20
0.0
 30
0.0
 70
   128
 62
  9
 71
 -3
 72
 -4
 73
 -2
  0
VERTEX
  8
72OFGO3D01_ANY
 10
0.0
 20
0.0
 30
0.0
 70
   128
 62
  9
 71
  5
 72
  6
 73
  7
  0
VERTEX
  8
72OFGO3D01_ANY
 10
0.0
 20
0.0
 30
0.0
 70
   128
 62
  9
 71
 -7
 72
 -6
 73
 -5
  0
VERTEX
  8
72OFGO3D01_ANY
 10
0.0
 20
0.0
 30
0.0
 70
   128
 62
  9
 71
  6
 72
  8
 73
  7
  0
VERTEX
  8
72OFGO3D01_ANY
 10
0.0
 20
0.0
 30
0.0
 70
   128
 62
  9
 71
 -7
 72
 -8
 73
 -6
  0
VERTEX
  8
72OFGO3D01_ANY
 10
0.0
 20
0.0
 30
0.0
 70
   128
 62
  9
 71
  9
 72
  10
 73
  11
  0
VERTEX
  8
72OFGO3D01_ANY
 10
0.0
 20
0.0
 30
0.0
 70
   128
 62
  9
 71
 -11
 72
 -10
 73
 -9
  0
VERTEX
  8
72OFGO3D01_ANY
 10
0.0
 20
0.0
 30
0.0
 70
   128
 62
  9
 71
  10
 72
  12
 73
  11
  0
VERTEX
  8
72OFGO3D01_ANY
 10
0.0
 20
0.0
 30
0.0
 70
   128
 62
  9
 71
 -11
 72
 -12
 73
 -10
  0
VERTEX
  8
72OFGO3D01_ANY
 10
0.0
 20
0.0
 30
0.0
 70
   128
 62
  9
 71
  9
 72
  13
 73
  10
  0
VERTEX
  8
72OFGO3D01_ANY
 10
0.0
 20
0.0
 30
0.0
 70
   128
 62
  9
 71
 -10
 72
 -13
 73
 -9
  0
VERTEX
  8
72OFGO3D01_ANY
 10
0.0
 20
0.0
 30
0.0
 70
   128
 62
  9
 71
  13
 72
  14
 73
  10
  0
VERTEX
  8
72OFGO3D01_ANY
 10
0.0
 20
0.0
 30
0.0
 70
   128
 62
  9
 71
 -10
 72
 -14
 73
 -13
  0
VERTEX
  8
72OFGO3D01_ANY
 10
0.0
 20
0.0
 30
0.0
 70
   128
 62
  9
 71
  11
 72
  1
 73
  9
  0
VERTEX
  8
72OFGO3D01_ANY
 10
0.0
 20
0.0
 30
0.0
 70
   128
 62
  9
 71
 -9
 72
 -1
 73
 -11
  0
VERTEX
  8
72OFGO3D01_ANY
 10
0.0
 20
0.0
 30
0.0
 70
   128
 62
  9
 71
  1
 72
  3
 73
  9
  0
VERTEX
  8
72OFGO3D01_ANY
 10
0.0
 20
0.0
 30
0.0
 70
   128
 62
  9
 71
 -9
 72
 -3
 73
 -1
  0
VERTEX
  8
72OFGO3D01_ANY
 10
0.0
 20
0.0
 30
0.0
 70
   128
 62
  9
 71
  10
 72
  8
 73
  12
  0
VERTEX
  8
72OFGO3D01_ANY
 10
0.0
 20
0.0
 30
0.0
 70
   128
 62
  9
 71
 -12
 72
 -8
 73
 -10
  0
VERTEX
  8
72OFGO3D01_ANY
 10
0.0
 20
0.0
 30
0.0
 70
   128
 62
  9
 71
  8
 72
  6
 73
  12
  0
VERTEX
  8
72OFGO3D01_ANY
 10
0.0
 20
0.0
 30
0.0
 70
   128
 62
  9
 71
 -12
 72
 -6
 73
 -8
  0
VERTEX
  8
72OFGO3D01_ANY
 10
0.0
 20
0.0
 30
0.0
 70
   128
 62
  9
 71
  15
 72
  7
 73
  10
  0
VERTEX
  8
72OFGO3D01_ANY
 10
0.0
 20
0.0
 30
0.0
 70
   128
 62
  9
 71
 -10
 72
 -7
 73
 -15
  0
VERTEX
  8
72OFGO3D01_ANY
 10
0.0
 20
0.0
 30
0.0
 70
   128
 62
  9
 71
  7
 72
  8
 73
  10
  0
VERTEX
  8
72OFGO3D01_ANY
 10
0.0
 20
0.0
 30
0.0
 70
   128
 62
  9
 71
 -10
 72
 -8
 73
 -7
  0
VERTEX
  8
72OFGO3D01_ANY
 10
0.0
 20
0.0
 30
0.0
 70
   128
 62
  9
 71
  9
 72
  3
 73
  16
  0
VERTEX
  8
72OFGO3D01_ANY
 10
0.0
 20
0.0
 30
0.0
 70
   128
 62
  9
 71
 -16
 72
 -3
 73
 -9
  0
VERTEX
  8
72OFGO3D01_ANY
 10
0.0
 20
0.0
 30
0.0
 70
   128
 62
  9
 71
  3
 72
  4
 73
  16
  0
VERTEX
  8
72OFGO3D01_ANY
 10
0.0
 20
0.0
 30
0.0
 70
   128
 62
  9
 71
 -16
 72
 -4
 73
 -3
  0
VERTEX
  8
72OFGO3D01_ANY
 10
0.0
 20
0.0
 30
0.0
 70
   128
 62
  9
 71
  2
 72
  11
 73
  17
  0
VERTEX
  8
72OFGO3D01_ANY
 10
0.0
 20
0.0
 30
0.0
 70
   128
 62
  9
 71
 -17
 72
 -11
 73
 -2
  0
VERTEX
  8
72OFGO3D01_ANY
 10
0.0
 20
0.0
 30
0.0
 70
   128
 62
  9
 71
  2
 72
  1
 73
  11
  0
VERTEX
  8
72OFGO3D01_ANY
 10
0.0
 20
0.0
 30
0.0
 70
   128
 62
  9
 71
 -11
 72
 -1
 73
 -2
  0
VERTEX
  8
72OFGO3D01_ANY
 10
0.0
 20
0.0
 30
0.0
 70
   128
 62
  9
 71
  11
 72
  12
 73
  17
  0
VERTEX
  8
72OFGO3D01_ANY
 10
0.0
 20
0.0
 30
0.0
 70
   128
 62
  9
 71
 -17
 72
 -12
 73
 -11
  0
VERTEX
  8
72OFGO3D01_ANY
 10
0.0
 20
0.0
 30
0.0
 70
   128
 62
  9
 71
  6
 72
  5
 73
  12
  0
VERTEX
  8
72OFGO3D01_ANY
 10
0.0
 20
0.0
 30
0.0
 70
   128
 62
  9
 71
 -12
 72
 -5
 73
 -6
  0
VERTEX
  8
72OFGO3D01_ANY
 10
0.0
 20
0.0
 30
0.0
 70
   128
 62
  9
 71
  5
 72
  18
 73
  12
  0
VERTEX
  8
72OFGO3D01_ANY
 10
0.0
 20
0.0
 30
0.0
 70
   128
 62
  9
 71
 -12
 72
 -18
 73
 -5
  0
VERTEX
  8
72OFGO3D01_ANY
 10
0.0
 20
0.0
 30
0.0
 70
   128
 62
  9
 71
  18
 72
  17
 73
  12
  0
VERTEX
  8
72OFGO3D01_ANY
 10
0.0
 20
0.0
 30
0.0
 70
   128
 62
  9
 71
 -12
 72
 -17
 73
 -18
  0
VERTEX
  8
72OFGO3D01_ANY
 10
0.0
 20
0.0
 30
0.0
 70
   128
 62
  9
 71
  19
 72
  18
 73
  15
  0
VERTEX
  8
72OFGO3D01_ANY
 10
0.0
 20
0.0
 30
0.0
 70
   128
 62
  9
 71
 -15
 72
 -18
 73
 -19
  0
VERTEX
  8
72OFGO3D01_ANY
 10
0.0
 20
0.0
 30
0.0
 70
   128
 62
  9
 71
  18
 72
  19
 73
  20
  0
VERTEX
  8
72OFGO3D01_ANY
 10
0.0
 20
0.0
 30
0.0
 70
   128
 62
  9
 71
 -20
 72
 -19
 73
 -18
  0
VERTEX
  8
72OFGO3D01_ANY
 10
0.0
 20
0.0
 30
0.0
 70
   128
 62
  9
 71
  18
 72
  20
 73
  21
  0
VERTEX
  8
72OFGO3D01_ANY
 10
0.0
 20
0.0
 30
0.0
 70
   128
 62
  9
 71
 -21
 72
 -20
 73
 -18
  0
VERTEX
  8
72OFGO3D01_ANY
 10
0.0
 20
0.0
 30
0.0
 70
   128
 62
  9
 71
  22
 72
  20
 73
  23
  0
VERTEX
  8
72OFGO3D01_ANY
 10
0.0
 20
0.0
 30
0.0
 70
   128
 62
  9
 71
 -23
 72
 -20
 73
 -22
  0
VERTEX
  8
72OFGO3D01_ANY
 10
0.0
 20
0.0
 30
0.0
 70
   128
 62
  9
 71
  20
 72
  24
 73
  21
  0
VERTEX
  8
72OFGO3D01_ANY
 10
0.0
 20
0.0
 30
0.0
 70
   128
 62
  9
 71
 -21
 72
 -24
 73
 -20
  0
VERTEX
  8
72OFGO3D01_ANY
 10
0.0
 20
0.0
 30
0.0
 70
   128
 62
  9
 71
  25
 72
  26
 73
  24
  0
VERTEX
  8
72OFGO3D01_ANY
 10
0.0
 20
0.0
 30
0.0
 70
   128
 62
  9
 71
 -24
 72
 -26
 73
 -25
  0
VERTEX
  8
72OFGO3D01_ANY
 10
0.0
 20
0.0
 30
0.0
 70
   128
 62
  9
 71
  26
 72
  21
 73
  24
  0
VERTEX
  8
72OFGO3D01_ANY
 10
0.0
 20
0.0
 30
0.0
 70
   128
 62
  9
 71
 -24
 72
 -21
 73
 -26
  0
VERTEX
  8
72OFGO3D01_ANY
 10
0.0
 20
0.0
 30
0.0
 70
   128
 62
  9
 71
  18
 72
  5
 73
  15
  0
VERTEX
  8
72OFGO3D01_ANY
 10
0.0
 20
0.0
 30
0.0
 70
   128
 62
  9
 71
 -15
 72
 -5
 73
 -18
  0
VERTEX
  8
72OFGO3D01_ANY
 10
0.0
 20
0.0
 30
0.0
 70
   128
 62
  9
 71
  5
 72
  7
 73
  15
  0
VERTEX
  8
72OFGO3D01_ANY
 10
0.0
 20
0.0
 30
0.0
 70
   128
 62
  9
 71
 -15
 72
 -7
 73
 -5
  0
VERTEX
  8
72OFGO3D01_ANY
 10
0.0
 20
0.0
 30
0.0
 70
   128
 62
  9
 71
  23
 72
  20
 73
  19
  0
VERTEX
  8
72OFGO3D01_ANY
 10
0.0
 20
0.0
 30
0.0
 70
   128
 62
  9
 71
 -19
 72
 -20
 73
 -23
  0
VERTEX
  8
72OFGO3D01_ANY
 10
0.0
 20
0.0
 30
0.0
 70
   128
 62
  9
 71
  27
 72
  28
 73
  17
  0
VERTEX
  8
72OFGO3D01_ANY
 10
0.0
 20
0.0
 30
0.0
 70
   128
 62
  9
 71
 -17
 72
 -28
 73
 -27
  0
VERTEX
  8
72OFGO3D01_ANY
 10
0.0
 20
0.0
 30
0.0
 70
   128
 62
  9
 71
  28
 72
  27
 73
  29
  0
VERTEX
  8
72OFGO3D01_ANY
 10
0.0
 20
0.0
 30
0.0
 70
   128
 62
  9
 71
 -29
 72
 -27
 73
 -28
  0
VERTEX
  8
72OFGO3D01_ANY
 10
0.0
 20
0.0
 30
0.0
 70
   128
 62
  9
 71
  30
 72
  29
 73
  31
  0
VERTEX
  8
72OFGO3D01_ANY
 10
0.0
 20
0.0
 30
0.0
 70
   128
 62
  9
 71
 -31
 72
 -29
 73
 -30
  0
VERTEX
  8
72OFGO3D01_ANY
 10
0.0
 20
0.0
 30
0.0
 70
   128
 62
  9
 71
  31
 72
  29
 73
  27
  0
VERTEX
  8
72OFGO3D01_ANY
 10
0.0
 20
0.0
 30
0.0
 70
   128
 62
  9
 71
 -27
 72
 -29
 73
 -31
  0
VERTEX
  8
72OFGO3D01_ANY
 10
0.0
 20
0.0
 30
0.0
 70
   128
 62
  9
 71
  17
 72
  28
 73
  32
  0
VERTEX
  8
72OFGO3D01_ANY
 10
0.0
 20
0.0
 30
0.0
 70
   128
 62
  9
 71
 -32
 72
 -28
 73
 -17
  0
VERTEX
  8
72OFGO3D01_ANY
 10
0.0
 20
0.0
 30
0.0
 70
   128
 62
  9
 71
  17
 72
  32
 73
  16
  0
VERTEX
  8
72OFGO3D01_ANY
 10
0.0
 20
0.0
 30
0.0
 70
   128
 62
  9
 71
 -16
 72
 -32
 73
 -17
  0
VERTEX
  8
72OFGO3D01_ANY
 10
0.0
 20
0.0
 30
0.0
 70
   128
 62
  9
 71
  17
 72
  16
 73
  2
  0
VERTEX
  8
72OFGO3D01_ANY
 10
0.0
 20
0.0
 30
0.0
 70
   128
 62
  9
 71
 -2
 72
 -16
 73
 -17
  0
VERTEX
  8
72OFGO3D01_ANY
 10
0.0
 20
0.0
 30
0.0
 70
   128
 62
  9
 71
  33
 72
  32
 73
  34
  0
VERTEX
  8
72OFGO3D01_ANY
 10
0.0
 20
0.0
 30
0.0
 70
   128
 62
  9
 71
 -34
 72
 -32
 73
 -33
  0
VERTEX
  8
72OFGO3D01_ANY
 10
0.0
 20
0.0
 30
0.0
 70
   128
 62
  9
 71
  16
 72
  4
 73
  2
  0
VERTEX
  8
72OFGO3D01_ANY
 10
0.0
 20
0.0
 30
0.0
 70
   128
 62
  9
 71
 -2
 72
 -4
 73
 -16
  0
VERTEX
  8
72OFGO3D01_ANY
 10
0.0
 20
0.0
 30
0.0
 70
   128
 62
  9
 71
  34
 72
  32
 73
  28
  0
VERTEX
  8
72OFGO3D01_ANY
 10
0.0
 20
0.0
 30
0.0
 70
   128
 62
  9
 71
 -28
 72
 -32
 73
 -34
  0
VERTEX
  8
72OFGO3D01_ANY
 10
0.0
 20
0.0
 30
0.0
 70
   128
 62
  9
 71
  21
 72
  35
 73
  18
  0
VERTEX
  8
72OFGO3D01_ANY
 10
0.0
 20
0.0
 30
0.0
 70
   128
 62
  9
 71
 -18
 72
 -35
 73
 -21
  0
VERTEX
  8
72OFGO3D01_ANY
 10
0.0
 20
0.0
 30
0.0
 70
   128
 62
  9
 71
  35
 72
  21
 73
  36
  0
VERTEX
  8
72OFGO3D01_ANY
 10
0.0
 20
0.0
 30
0.0
 70
   128
 62
  9
 71
 -36
 72
 -21
 73
 -35
  0
VERTEX
  8
72OFGO3D01_ANY
 10
0.0
 20
0.0
 30
0.0
 70
   128
 62
  9
 71
  17
 72
  37
 73
  27
  0
VERTEX
  8
72OFGO3D01_ANY
 10
0.0
 20
0.0
 30
0.0
 70
   128
 62
  9
 71
 -27
 72
 -37
 73
 -17
  0
VERTEX
  8
72OFGO3D01_ANY
 10
0.0
 20
0.0
 30
0.0
 70
   128
 62
  9
 71
  18
 72
  13
 73
  17
  0
VERTEX
  8
72OFGO3D01_ANY
 10
0.0
 20
0.0
 30
0.0
 70
   128
 62
  9
 71
 -17
 72
 -13
 73
 -18
  0
VERTEX
  8
72OFGO3D01_ANY
 10
0.0
 20
0.0
 30
0.0
 70
   128
 62
  9
 71
  18
 72
  35
 73
  38
  0
VERTEX
  8
72OFGO3D01_ANY
 10
0.0
 20
0.0
 30
0.0
 70
   128
 62
  9
 71
 -38
 72
 -35
 73
 -18
  0
VERTEX
  8
72OFGO3D01_ANY
 10
0.0
 20
0.0
 30
0.0
 70
   128
 62
  9
 71
  18
 72
  38
 73
  14
  0
VERTEX
  8
72OFGO3D01_ANY
 10
0.0
 20
0.0
 30
0.0
 70
   128
 62
  9
 71
 -14
 72
 -38
 73
 -18
  0
VERTEX
  8
72OFGO3D01_ANY
 10
0.0
 20
0.0
 30
0.0
 70
   128
 62
  9
 71
  18
 72
  14
 73
  13
  0
VERTEX
  8
72OFGO3D01_ANY
 10
0.0
 20
0.0
 30
0.0
 70
   128
 62
  9
 71
 -13
 72
 -14
 73
 -18
  0
VERTEX
  8
72OFGO3D01_ANY
 10
0.0
 20
0.0
 30
0.0
 70
   128
 62
  9
 71
  37
 72
  39
 73
  27
  0
VERTEX
  8
72OFGO3D01_ANY
 10
0.0
 20
0.0
 30
0.0
 70
   128
 62
  9
 71
 -27
 72
 -39
 73
 -37
  0
VERTEX
  8
72OFGO3D01_ANY
 10
0.0
 20
0.0
 30
0.0
 70
   128
 62
  9
 71
  39
 72
  36
 73
  27
  0
VERTEX
  8
72OFGO3D01_ANY
 10
0.0
 20
0.0
 30
0.0
 70
   128
 62
  9
 71
 -27
 72
 -36
 73
 -39
  0
VERTEX
  8
72OFGO3D01_ANY
 10
0.0
 20
0.0
 30
0.0
 70
   128
 62
  9
 71
  13
 72
  40
 73
  17
  0
VERTEX
  8
72OFGO3D01_ANY
 10
0.0
 20
0.0
 30
0.0
 70
   128
 62
  9
 71
 -17
 72
 -40
 73
 -13
  0
VERTEX
  8
72OFGO3D01_ANY
 10
0.0
 20
0.0
 30
0.0
 70
   128
 62
  9
 71
  17
 72
  40
 73
  37
  0
VERTEX
  8
72OFGO3D01_ANY
 10
0.0
 20
0.0
 30
0.0
 70
   128
 62
  9
 71
 -37
 72
 -40
 73
 -17
  0
VERTEX
  8
72OFGO3D01_ANY
 10
0.0
 20
0.0
 30
0.0
 70
   128
 62
  9
 71
  35
 72
  37
 73
  38
  0
VERTEX
  8
72OFGO3D01_ANY
 10
0.0
 20
0.0
 30
0.0
 70
   128
 62
  9
 71
 -38
 72
 -37
 73
 -35
  0
VERTEX
  8
72OFGO3D01_ANY
 10
0.0
 20
0.0
 30
0.0
 70
   128
 62
  9
 71
  38
 72
  37
 73
  40
  0
VERTEX
  8
72OFGO3D01_ANY
 10
0.0
 20
0.0
 30
0.0
 70
   128
 62
  9
 71
 -40
 72
 -37
 73
 -38
  0
VERTEX
  8
72OFGO3D01_ANY
 10
0.0
 20
0.0
 30
0.0
 70
   128
 62
  9
 71
  36
 72
  21
 73
  27
  0
VERTEX
  8
72OFGO3D01_ANY
 10
0.0
 20
0.0
 30
0.0
 70
   128
 62
  9
 71
 -27
 72
 -21
 73
 -36
  0
VERTEX
  8
72OFGO3D01_ANY
 10
0.0
 20
0.0
 30
0.0
 70
   128
 62
  9
 71
  41
 72
  33
 73
  42
  0
VERTEX
  8
72OFGO3D01_ANY
 10
0.0
 20
0.0
 30
0.0
 70
   128
 62
  9
 71
 -42
 72
 -33
 73
 -41
  0
VERTEX
  8
72OFGO3D01_ANY
 10
0.0
 20
0.0
 30
0.0
 70
   128
 62
  9
 71
  33
 72
  34
 73
  42
  0
VERTEX
  8
72OFGO3D01_ANY
 10
0.0
 20
0.0
 30
0.0
 70
   128
 62
  9
 71
 -42
 72
 -34
 73
 -33
  0
VERTEX
  8
72OFGO3D01_ANY
 10
0.0
 20
0.0
 30
0.0
 70
   128
 62
  9
 71
  23
 72
  43
 73
  22
  0
VERTEX
  8
72OFGO3D01_ANY
 10
0.0
 20
0.0
 30
0.0
 70
   128
 62
  9
 71
 -22
 72
 -43
 73
 -23
  0
VERTEX
  8
72OFGO3D01_ANY
 10
0.0
 20
0.0
 30
0.0
 70
   128
 62
  9
 71
  43
 72
  44
 73
  22
  0
VERTEX
  8
72OFGO3D01_ANY
 10
0.0
 20
0.0
 30
0.0
 70
   128
 62
  9
 71
 -22
 72
 -44
 73
 -43
  0
VERTEX
  8
72OFGO3D01_ANY
 10
0.0
 20
0.0
 30
0.0
 70
   128
 62
  9
 71
  45
 72
  40
 73
  9
  0
VERTEX
  8
72OFGO3D01_ANY
 10
0.0
 20
0.0
 30
0.0
 70
   128
 62
  9
 71
 -9
 72
 -40
 73
 -45
  0
VERTEX
  8
72OFGO3D01_ANY
 10
0.0
 20
0.0
 30
0.0
 70
   128
 62
  9
 71
  40
 72
  13
 73
  9
  0
VERTEX
  8
72OFGO3D01_ANY
 10
0.0
 20
0.0
 30
0.0
 70
   128
 62
  9
 71
 -9
 72
 -13
 73
 -40
  0
VERTEX
  8
72OFGO3D01_ANY
 10
0.0
 20
0.0
 30
0.0
 70
   128
 62
  9
 71
  40
 72
  45
 73
  38
  0
VERTEX
  8
72OFGO3D01_ANY
 10
0.0
 20
0.0
 30
0.0
 70
   128
 62
  9
 71
 -38
 72
 -45
 73
 -40
  0
VERTEX
  8
72OFGO3D01_ANY
 10
0.0
 20
0.0
 30
0.0
 70
   128
 62
  9
 71
  45
 72
  46
 73
  38
  0
VERTEX
  8
72OFGO3D01_ANY
 10
0.0
 20
0.0
 30
0.0
 70
   128
 62
  9
 71
 -38
 72
 -46
 73
 -45
  0
VERTEX
  8
72OFGO3D01_ANY
 10
0.0
 20
0.0
 30
0.0
 70
   128
 62
  9
 71
  47
 72
  48
 73
  45
  0
VERTEX
  8
72OFGO3D01_ANY
 10
0.0
 20
0.0
 30
0.0
 70
   128
 62
  9
 71
 -45
 72
 -48
 73
 -47
  0
VERTEX
  8
72OFGO3D01_ANY
 10
0.0
 20
0.0
 30
0.0
 70
   128
 62
  9
 71
  48
 72
  46
 73
  45
  0
VERTEX
  8
72OFGO3D01_ANY
 10
0.0
 20
0.0
 30
0.0
 70
   128
 62
  9
 71
 -45
 72
 -46
 73
 -48
  0
VERTEX
  8
72OFGO3D01_ANY
 10
0.0
 20
0.0
 30
0.0
 70
   128
 62
  9
 71
  47
 72
  37
 73
  48
  0
VERTEX
  8
72OFGO3D01_ANY
 10
0.0
 20
0.0
 30
0.0
 70
   128
 62
  9
 71
 -48
 72
 -37
 73
 -47
  0
VERTEX
  8
72OFGO3D01_ANY
 10
0.0
 20
0.0
 30
0.0
 70
   128
 62
  9
 71
  37
 72
  35
 73
  48
  0
VERTEX
  8
72OFGO3D01_ANY
 10
0.0
 20
0.0
 30
0.0
 70
   128
 62
  9
 71
 -48
 72
 -35
 73
 -37
  0
VERTEX
  8
72OFGO3D01_ANY
 10
0.0
 20
0.0
 30
0.0
 70
   128
 62
  9
 71
  45
 72
  41
 73
  47
  0
VERTEX
  8
72OFGO3D01_ANY
 10
0.0
 20
0.0
 30
0.0
 70
   128
 62
  9
 71
 -47
 72
 -41
 73
 -45
  0
VERTEX
  8
72OFGO3D01_ANY
 10
0.0
 20
0.0
 30
0.0
 70
   128
 62
  9
 71
  41
 72
  42
 73
  47
  0
VERTEX
  8
72OFGO3D01_ANY
 10
0.0
 20
0.0
 30
0.0
 70
   128
 62
  9
 71
 -47
 72
 -42
 73
 -41
  0
VERTEX
  8
72OFGO3D01_ANY
 10
0.0
 20
0.0
 30
0.0
 70
   128
 62
  9
 71
  48
 72
  44
 73
  46
  0
VERTEX
  8
72OFGO3D01_ANY
 10
0.0
 20
0.0
 30
0.0
 70
   128
 62
  9
 71
 -46
 72
 -44
 73
 -48
  0
VERTEX
  8
72OFGO3D01_ANY
 10
0.0
 20
0.0
 30
0.0
 70
   128
 62
  9
 71
  44
 72
  43
 73
  46
  0
VERTEX
  8
72OFGO3D01_ANY
 10
0.0
 20
0.0
 30
0.0
 70
   128
 62
  9
 71
 -46
 72
 -43
 73
 -44
  0
VERTEX
  8
72OFGO3D01_ANY
 10
0.0
 20
0.0
 30
0.0
 70
   128
 62
  9
 71
  38
 72
  46
 73
  14
  0
VERTEX
  8
72OFGO3D01_ANY
 10
0.0
 20
0.0
 30
0.0
 70
   128
 62
  9
 71
 -14
 72
 -46
 73
 -38
  0
VERTEX
  8
72OFGO3D01_ANY
 10
0.0
 20
0.0
 30
0.0
 70
   128
 62
  9
 71
  46
 72
  10
 73
  14
  0
VERTEX
  8
72OFGO3D01_ANY
 10
0.0
 20
0.0
 30
0.0
 70
   128
 62
  9
 71
 -14
 72
 -10
 73
 -46
  0
VERTEX
  8
72OFGO3D01_ANY
 10
0.0
 20
0.0
 30
0.0
 70
   128
 62
  9
 71
  46
 72
  19
 73
  10
  0
VERTEX
  8
72OFGO3D01_ANY
 10
0.0
 20
0.0
 30
0.0
 70
   128
 62
  9
 71
 -10
 72
 -19
 73
 -46
  0
VERTEX
  8
72OFGO3D01_ANY
 10
0.0
 20
0.0
 30
0.0
 70
   128
 62
  9
 71
  19
 72
  15
 73
  10
  0
VERTEX
  8
72OFGO3D01_ANY
 10
0.0
 20
0.0
 30
0.0
 70
   128
 62
  9
 71
 -10
 72
 -15
 73
 -19
  0
VERTEX
  8
72OFGO3D01_ANY
 10
0.0
 20
0.0
 30
0.0
 70
   128
 62
  9
 71
  32
 72
  45
 73
  16
  0
VERTEX
  8
72OFGO3D01_ANY
 10
0.0
 20
0.0
 30
0.0
 70
   128
 62
  9
 71
 -16
 72
 -45
 73
 -32
  0
VERTEX
  8
72OFGO3D01_ANY
 10
0.0
 20
0.0
 30
0.0
 70
   128
 62
  9
 71
  45
 72
  9
 73
  16
  0
VERTEX
  8
72OFGO3D01_ANY
 10
0.0
 20
0.0
 30
0.0
 70
   128
 62
  9
 71
 -16
 72
 -9
 73
 -45
  0
VERTEX
  8
72OFGO3D01_ANY
 10
0.0
 20
0.0
 30
0.0
 70
   128
 62
  9
 71
  47
 72
  42
 73
  28
  0
VERTEX
  8
72OFGO3D01_ANY
 10
0.0
 20
0.0
 30
0.0
 70
   128
 62
  9
 71
 -28
 72
 -42
 73
 -47
  0
VERTEX
  8
72OFGO3D01_ANY
 10
0.0
 20
0.0
 30
0.0
 70
   128
 62
  9
 71
  42
 72
  34
 73
  28
  0
VERTEX
  8
72OFGO3D01_ANY
 10
0.0
 20
0.0
 30
0.0
 70
   128
 62
  9
 71
 -28
 72
 -34
 73
 -42
  0
VERTEX
  8
72OFGO3D01_ANY
 10
0.0
 20
0.0
 30
0.0
 70
   128
 62
  9
 71
  32
 72
  33
 73
  45
  0
VERTEX
  8
72OFGO3D01_ANY
 10
0.0
 20
0.0
 30
0.0
 70
   128
 62
  9
 71
 -45
 72
 -33
 73
 -32
  0
VERTEX
  8
72OFGO3D01_ANY
 10
0.0
 20
0.0
 30
0.0
 70
   128
 62
  9
 71
  33
 72
  41
 73
  45
  0
VERTEX
  8
72OFGO3D01_ANY
 10
0.0
 20
0.0
 30
0.0
 70
   128
 62
  9
 71
 -45
 72
 -41
 73
 -33
  0
VERTEX
  8
72OFGO3D01_ANY
 10
0.0
 20
0.0
 30
0.0
 70
   128
 62
  9
 71
  20
 72
  22
 73
  48
  0
VERTEX
  8
72OFGO3D01_ANY
 10
0.0
 20
0.0
 30
0.0
 70
   128
 62
  9
 71
 -48
 72
 -22
 73
 -20
  0
VERTEX
  8
72OFGO3D01_ANY
 10
0.0
 20
0.0
 30
0.0
 70
   128
 62
  9
 71
  22
 72
  44
 73
  48
  0
VERTEX
  8
72OFGO3D01_ANY
 10
0.0
 20
0.0
 30
0.0
 70
   128
 62
  9
 71
 -48
 72
 -44
 73
 -22
  0
VERTEX
  8
72OFGO3D01_ANY
 10
0.0
 20
0.0
 30
0.0
 70
   128
 62
  9
 71
  46
 72
  43
 73
  19
  0
VERTEX
  8
72OFGO3D01_ANY
 10
0.0
 20
0.0
 30
0.0
 70
   128
 62
  9
 71
 -19
 72
 -43
 73
 -46
  0
VERTEX
  8
72OFGO3D01_ANY
 10
0.0
 20
0.0
 30
0.0
 70
   128
 62
  9
 71
  43
 72
  23
 73
  19
  0
VERTEX
  8
72OFGO3D01_ANY
 10
0.0
 20
0.0
 30
0.0
 70
   128
 62
  9
 71
 -19
 72
 -23
 73
 -43
  0
VERTEX
  8
72OFGO3D01_ANY
 10
0.0
 20
0.0
 30
0.0
 70
   128
 62
  9
 71
  36
 72
  49
 73
  35
  0
VERTEX
  8
72OFGO3D01_ANY
 10
0.0
 20
0.0
 30
0.0
 70
   128
 62
  9
 71
 -35
 72
 -49
 73
 -36
  0
VERTEX
  8
72OFGO3D01_ANY
 10
0.0
 20
0.0
 30
0.0
 70
   128
 62
  9
 71
  49
 72
  48
 73
  35
  0
VERTEX
  8
72OFGO3D01_ANY
 10
0.0
 20
0.0
 30
0.0
 70
   128
 62
  9
 71
 -35
 72
 -48
 73
 -49
  0
VERTEX
  8
72OFGO3D01_ANY
 10
0.0
 20
0.0
 30
0.0
 70
   128
 62
  9
 71
  50
 72
  39
 73
  47
  0
VERTEX
  8
72OFGO3D01_ANY
 10
0.0
 20
0.0
 30
0.0
 70
   128
 62
  9
 71
 -47
 72
 -39
 73
 -50
  0
VERTEX
  8
72OFGO3D01_ANY
 10
0.0
 20
0.0
 30
0.0
 70
   128
 62
  9
 71
  39
 72
  37
 73
  47
  0
VERTEX
  8
72OFGO3D01_ANY
 10
0.0
 20
0.0
 30
0.0
 70
   128
 62
  9
 71
 -47
 72
 -37
 73
 -39
  0
VERTEX
  8
72OFGO3D01_ANY
 10
0.0
 20
0.0
 30
0.0
 70
   128
 62
  9
 71
  29
 72
  50
 73
  28
  0
VERTEX
  8
72OFGO3D01_ANY
 10
0.0
 20
0.0
 30
0.0
 70
   128
 62
  9
 71
 -28
 72
 -50
 73
 -29
  0
VERTEX
  8
72OFGO3D01_ANY
 10
0.0
 20
0.0
 30
0.0
 70
   128
 62
  9
 71
  50
 72
  47
 73
  28
  0
VERTEX
  8
72OFGO3D01_ANY
 10
0.0
 20
0.0
 30
0.0
 70
   128
 62
  9
 71
 -28
 72
 -47
 73
 -50
  0
VERTEX
  8
72OFGO3D01_ANY
 10
0.0
 20
0.0
 30
0.0
 70
   128
 62
  9
 71
  51
 72
  30
 73
  52
  0
VERTEX
  8
72OFGO3D01_ANY
 10
0.0
 20
0.0
 30
0.0
 70
   128
 62
  9
 71
 -52
 72
 -30
 73
 -51
  0
VERTEX
  8
72OFGO3D01_ANY
 10
0.0
 20
0.0
 30
0.0
 70
   128
 62
  9
 71
  30
 72
  31
 73
  52
  0
VERTEX
  8
72OFGO3D01_ANY
 10
0.0
 20
0.0
 30
0.0
 70
   128
 62
  9
 71
 -52
 72
 -31
 73
 -30
  0
VERTEX
  8
72OFGO3D01_ANY
 10
0.0
 20
0.0
 30
0.0
 70
   128
 62
  9
 71
  25
 72
  53
 73
  26
  0
VERTEX
  8
72OFGO3D01_ANY
 10
0.0
 20
0.0
 30
0.0
 70
   128
 62
  9
 71
 -26
 72
 -53
 73
 -25
  0
VERTEX
  8
72OFGO3D01_ANY
 10
0.0
 20
0.0
 30
0.0
 70
   128
 62
  9
 71
  53
 72
  54
 73
  26
  0
VERTEX
  8
72OFGO3D01_ANY
 10
0.0
 20
0.0
 30
0.0
 70
   128
 62
  9
 71
 -26
 72
 -54
 73
 -53
  0
VERTEX
  8
72OFGO3D01_ANY
 10
0.0
 20
0.0
 30
0.0
 70
   128
 62
  9
 71
  49
 72
  24
 73
  48
  0
VERTEX
  8
72OFGO3D01_ANY
 10
0.0
 20
0.0
 30
0.0
 70
   128
 62
  9
 71
 -48
 72
 -24
 73
 -49
  0
VERTEX
  8
72OFGO3D01_ANY
 10
0.0
 20
0.0
 30
0.0
 70
   128
 62
  9
 71
  24
 72
  20
 73
  48
  0
VERTEX
  8
72OFGO3D01_ANY
 10
0.0
 20
0.0
 30
0.0
 70
   128
 62
  9
 71
 -48
 72
 -20
 73
 -24
  0
VERTEX
  8
72OFGO3D01_ANY
 10
0.0
 20
0.0
 30
0.0
 70
   128
 62
  9
 71
  55
 72
  27
 73
  56
  0
VERTEX
  8
72OFGO3D01_ANY
 10
0.0
 20
0.0
 30
0.0
 70
   128
 62
  9
 71
 -56
 72
 -27
 73
 -55
  0
VERTEX
  8
72OFGO3D01_ANY
 10
0.0
 20
0.0
 30
0.0
 70
   128
 62
  9
 71
  52
 72
  31
 73
  55
  0
VERTEX
  8
72OFGO3D01_ANY
 10
0.0
 20
0.0
 30
0.0
 70
   128
 62
  9
 71
 -55
 72
 -31
 73
 -52
  0
VERTEX
  8
72OFGO3D01_ANY
 10
0.0
 20
0.0
 30
0.0
 70
   128
 62
  9
 71
  31
 72
  27
 73
  55
  0
VERTEX
  8
72OFGO3D01_ANY
 10
0.0
 20
0.0
 30
0.0
 70
   128
 62
  9
 71
 -55
 72
 -27
 73
 -31
  0
VERTEX
  8
72OFGO3D01_ANY
 10
0.0
 20
0.0
 30
0.0
 70
   128
 62
  9
 71
  27
 72
  21
 73
  56
  0
VERTEX
  8
72OFGO3D01_ANY
 10
0.0
 20
0.0
 30
0.0
 70
   128
 62
  9
 71
 -56
 72
 -21
 73
 -27
  0
VERTEX
  8
72OFGO3D01_ANY
 10
0.0
 20
0.0
 30
0.0
 70
   128
 62
  9
 71
  21
 72
  26
 73
  56
  0
VERTEX
  8
72OFGO3D01_ANY
 10
0.0
 20
0.0
 30
0.0
 70
   128
 62
  9
 71
 -56
 72
 -26
 73
 -21
  0
VERTEX
  8
72OFGO3D01_ANY
 10
0.0
 20
0.0
 30
0.0
 70
   128
 62
  9
 71
  26
 72
  54
 73
  56
  0
VERTEX
  8
72OFGO3D01_ANY
 10
0.0
 20
0.0
 30
0.0
 70
   128
 62
  9
 71
 -56
 72
 -54
 73
 -26
  0
VERTEX
  8
72OFGO3D01_ANY
 10
0.0
 20
0.0
 30
0.0
 70
   128
 62
  9
 71
  49
 72
  53
 73
  24
  0
VERTEX
  8
72OFGO3D01_ANY
 10
0.0
 20
0.0
 30
0.0
 70
   128
 62
  9
 71
 -24
 72
 -53
 73
 -49
  0
VERTEX
  8
72OFGO3D01_ANY
 10
0.0
 20
0.0
 30
0.0
 70
   128
 62
  9
 71
  53
 72
  25
 73
  24
  0
VERTEX
  8
72OFGO3D01_ANY
 10
0.0
 20
0.0
 30
0.0
 70
   128
 62
  9
 71
 -24
 72
 -25
 73
 -53
  0
VERTEX
  8
72OFGO3D01_ANY
 10
0.0
 20
0.0
 30
0.0
 70
   128
 62
  9
 71
  29
 72
  30
 73
  50
  0
VERTEX
  8
72OFGO3D01_ANY
 10
0.0
 20
0.0
 30
0.0
 70
   128
 62
  9
 71
 -50
 72
 -30
 73
 -29
  0
VERTEX
  8
72OFGO3D01_ANY
 10
0.0
 20
0.0
 30
0.0
 70
   128
 62
  9
 71
  30
 72
  51
 73
  50
  0
VERTEX
  8
72OFGO3D01_ANY
 10
0.0
 20
0.0
 30
0.0
 70
   128
 62
  9
 71
 -50
 72
 -51
 73
 -30
  0
VERTEX
  8
72OFGO3D01_ANY
 10
0.0
 20
0.0
 30
0.0
 70
   128
 62
  9
 71
  49
 72
  36
 73
  50
  0
VERTEX
  8
72OFGO3D01_ANY
 10
0.0
 20
0.0
 30
0.0
 70
   128
 62
  9
 71
 -50
 72
 -36
 73
 -49
  0
VERTEX
  8
72OFGO3D01_ANY
 10
0.0
 20
0.0
 30
0.0
 70
   128
 62
  9
 71
  36
 72
  39
 73
  50
  0
VERTEX
  8
72OFGO3D01_ANY
 10
0.0
 20
0.0
 30
0.0
 70
   128
 62
  9
 71
 -50
 72
 -39
 73
 -36
  0
VERTEX
  8
72OFGO3D01_ANY
 10
0.0
 20
0.0
 30
0.0
 70
   128
 62
  9
 71
  55
 72
  56
 73
  50
  0
VERTEX
  8
72OFGO3D01_ANY
 10
0.0
 20
0.0
 30
0.0
 70
   128
 62
  9
 71
 -50
 72
 -56
 73
 -55
  0
VERTEX
  8
72OFGO3D01_ANY
 10
0.0
 20
0.0
 30
0.0
 70
   128
 62
  9
 71
  56
 72
  49
 73
  50
  0
VERTEX
  8
72OFGO3D01_ANY
 10
0.0
 20
0.0
 30
0.0
 70
   128
 62
  9
 71
 -50
 72
 -49
 73
 -56
  0
VERTEX
  8
72OFGO3D01_ANY
 10
0.0
 20
0.0
 30
0.0
 70
   128
 62
  9
 71
  56
 72
  54
 73
  49
  0
VERTEX
  8
72OFGO3D01_ANY
 10
0.0
 20
0.0
 30
0.0
 70
   128
 62
  9
 71
 -49
 72
 -54
 73
 -56
  0
VERTEX
  8
72OFGO3D01_ANY
 10
0.0
 20
0.0
 30
0.0
 70
   128
 62
  9
 71
  54
 72
  53
 73
  49
  0
VERTEX
  8
72OFGO3D01_ANY
 10
0.0
 20
0.0
 30
0.0
 70
   128
 62
  9
 71
 -49
 72
 -53
 73
 -54
  0
VERTEX
  8
72OFGO3D01_ANY
 10
0.0
 20
0.0
 30
0.0
 70
   128
 62
  9
 71
  50
 72
  51
 73
  55
  0
VERTEX
  8
72OFGO3D01_ANY
 10
0.0
 20
0.0
 30
0.0
 70
   128
 62
  9
 71
 -55
 72
 -51
 73
 -50
  0
VERTEX
  8
72OFGO3D01_ANY
 10
0.0
 20
0.0
 30
0.0
 70
   128
 62
  9
 71
  51
 72
  52
 73
  55
  0
VERTEX
  8
72OFGO3D01_ANY
 10
0.0
 20
0.0
 30
0.0
 70
   128
 62
  9
 71
 -55
 72
 -52
 73
 -51
  0
SEQEND
  0
ENDBLK
  8
0
  0
BLOCK
  8
0
  2
OB__000001
 70
    64
 10
0.0
 20
0.0
 30
0.0
  3
OB__000001
  0
INSERT
  8
72OFGO3D01_ANY
  2
OB__000000
 10
0.055
 20
-0.077
 30
0
 41
1
 42
1
 43
1
  0
ENDBLK
  8
0
  0
BLOCK
  8
0
  2
OB_60393_000002
 70
    64
 10
0.0
 20
0.0
 30
0.0
  3
OB_60393_000002
  0
INSERT
  8
72OFGO3D01_ANY
  2
OB__000001
 10
0.0
 20
0.0
 30
0.0
  0
ENDBLK
  8
0
  0
BLOCK
  8
0
  2
OB__000003
 70
    64
 10
0.0
 20
0.0
 30
0.0
  3
OB__000003
  0
INSERT
  8
72OFGO3D01_ANY
  2
OB_60393_000002
 10
0.0
 20
0.0
 30
0.0
  0
ENDBLK
  8
0
  0
BLOCK
  8
0
  2
OB2D__000004
 70
    64
 10
0.0
 20
0.0
 30
0.0
  3
OB2D__000004
  0
LINE
  8
DEFAULT
  6
DASHED
 48
0.1
 62
1
 10
-0.05
 20
-0.575
 30
0
 11
0.421
 21
-0.575
 31
0
  0
LINE
  8
DEFAULT
  6
DASHED
 48
0.1
 62
1
 10
0.371
 20
-0.625
 30
0
 11
0.371
 21
0.05
 31
0
  0
LINE
  8
DEFAULT
  6
DASHED
 48
0.1
 62
1
 10
0.421
 20
0
 30
0
 11
-0.05
 21
0
 31
0
  0
LINE
  8
DEFAULT
  6
DASHED
 48
0.1
 62
1
 10
0
 20
0.05
 30
0
 11
0
 21
-0.625
 31
0
  0
POLYLINE
  8
DEFAULT
 62
1
 66
     1
 70
     0
 10
0.0
 20
0.0
 30
0.0
  0
VERTEX
  8
DEFAULT
 10
0.0055
 20
0.08
 30
0
  0
VERTEX
  8
DEFAULT
 10
0.0369286
 20
0.08
 30
0
  0
VERTEX
  8
DEFAULT
 10
0.0197857
 20
0.0571429
 30
0
  0
VERTEX
  8
DEFAULT
 10
0.0283571
 20
0.0571429
 30
0
  0
VERTEX
  8
DEFAULT
 10
0.0340714
 20
0.0542857
 30
0
  0
VERTEX
  8
DEFAULT
 10
0.0369286
 20
0.0514286
 30
0
  0
VERTEX
  8
DEFAULT
 10
0.0397857
 20
0.0428571
 30
0
  0
VERTEX
  8
DEFAULT
 10
0.0397857
 20
0.0371429
 30
0
  0
VERTEX
  8
DEFAULT
 10
0.0369286
 20
0.0285714
 30
0
  0
VERTEX
  8
DEFAULT
 10
0.0312143
 20
0.0228571
 30
0
  0
VERTEX
  8
DEFAULT
 10
0.0226429
 20
0.02
 30
0
  0
VERTEX
  8
DEFAULT
 10
0.0140714
 20
0.02
 30
0
  0
VERTEX
  8
DEFAULT
 10
0.0055
 20
0.0228571
 30
0
  0
VERTEX
  8
DEFAULT
 10
0.00264286
 20
0.0257143
 30
0
  0
VERTEX
  8
DEFAULT
 10
-0.000214286
 20
0.0314286
 30
0
  0
SEQEND
  0
POLYLINE
  8
DEFAULT
 62
1
 66
     1
 70
     0
 10
0.0
 20
0.0
 30
0.0
  0
VERTEX
  8
DEFAULT
 10
0.0969286
 20
0.08
 30
0
  0
VERTEX
  8
DEFAULT
 10
0.0683571
 20
0.02
 30
0
  0
SEQEND
  0
POLYLINE
  8
DEFAULT
 62
1
 66
     1
 70
     0
 10
0.0
 20
0.0
 30
0.0
  0
VERTEX
  8
DEFAULT
 10
0.0569286
 20
0.08
 30
0
  0
VERTEX
  8
DEFAULT
 10
0.0969286
 20
0.08
 30
0
  0
SEQEND
  0
POLYLINE
  8
DEFAULT
 62
1
 66
     1
 70
     0
 10
0.0
 20
0.0
 30
0.0
  0
VERTEX
  8
DEFAULT
 10
0.122643
 20
0.0685714
 30
0
  0
VERTEX
  8
DEFAULT
 10
0.128357
 20
0.0714286
 30
0
  0
VERTEX
  8
DEFAULT
 10
0.136929
 20
0.08
 30
0
  0
VERTEX
  8
DEFAULT
 10
0.136929
 20
0.02
 30
0
  0
SEQEND
  0
POLYLINE
  8
DEFAULT
 62
1
 66
     1
 70
     0
 10
0.0
 20
0.0
 30
0.0
  0
VERTEX
  8
DEFAULT
 10
0.219786
 20
0.06
 30
0
  0
VERTEX
  8
DEFAULT
 10
0.219786
 20
0.02
 30
0
  0
SEQEND
  0
POLYLINE
  8
DEFAULT
 62
1
 66
     1
 70
     0
 10
0.0
 20
0.0
 30
0.0
  0
VERTEX
  8
DEFAULT
 10
0.219786
 20
0.0485714
 30
0
  0
VERTEX
  8
DEFAULT
 10
0.228357
 20
0.0571429
 30
0
  0
VERTEX
  8
DEFAULT
 10
0.234071
 20
0.06
 30
0
  0
VERTEX
  8
DEFAULT
 10
0.242643
 20
0.06
 30
0
  0
VERTEX
  8
DEFAULT
 10
0.248357
 20
0.0571429
 30
0
  0
VERTEX
  8
DEFAULT
 10
0.251214
 20
0.0485714
 30
0
  0
VERTEX
  8
DEFAULT
 10
0.251214
 20
0.02
 30
0
  0
SEQEND
  0
POLYLINE
  8
DEFAULT
 62
1
 66
     1
 70
     0
 10
0.0
 20
0.0
 30
0.0
  0
VERTEX
  8
DEFAULT
 10
0.251214
 20
0.0485714
 30
0
  0
VERTEX
  8
DEFAULT
 10
0.259786
 20
0.0571429
 30
0
  0
VERTEX
  8
DEFAULT
 10
0.2655
 20
0.06
 30
0
  0
VERTEX
  8
DEFAULT
 10
0.274071
 20
0.06
 30
0
  0
VERTEX
  8
DEFAULT
 10
0.279786
 20
0.0571429
 30
0
  0
VERTEX
  8
DEFAULT
 10
0.282643
 20
0.0485714
 30
0
  0
VERTEX
  8
DEFAULT
 10
0.282643
 20
0.02
 30
0
  0
SEQEND
  0
POLYLINE
  8
DEFAULT
 62
1
 66
     1
 70
     0
 10
0.0
 20
0.0
 30
0.0
  0
VERTEX
  8
DEFAULT
 10
0.3055
 20
0.06
 30
0
  0
VERTEX
  8
DEFAULT
 10
0.3055
 20
0.02
 30
0
  0
SEQEND
  0
POLYLINE
  8
DEFAULT
 62
1
 66
     1
 70
     0
 10
0.0
 20
0.0
 30
0.0
  0
VERTEX
  8
DEFAULT
 10
0.3055
 20
0.0485714
 30
0
  0
VERTEX
  8
DEFAULT
 10
0.314071
 20
0.0571429
 30
0
  0
VERTEX
  8
DEFAULT
 10
0.319786
 20
0.06
 30
0
  0
VERTEX
  8
DEFAULT
 10
0.328357
 20
0.06
 30
0
  0
VERTEX
  8
DEFAULT
 10
0.334071
 20
0.0571429
 30
0
  0
VERTEX
  8
DEFAULT
 10
0.336929
 20
0.0485714
 30
0
  0
VERTEX
  8
DEFAULT
 10
0.336929
 20
0.02
 30
0
  0
SEQEND
  0
POLYLINE
  8
DEFAULT
 62
1
 66
     1
 70
     0
 10
0.0
 20
0.0
 30
0.0
  0
VERTEX
  8
DEFAULT
 10
0.336929
 20
0.0485714
 30
0
  0
VERTEX
  8
DEFAULT
 10
0.3455
 20
0.0571429
 30
0
  0
VERTEX
  8
DEFAULT
 10
0.351214
 20
0.06
 30
0
  0
VERTEX
  8
DEFAULT
 10
0.359786
 20
0.06
 30
0
  0
VERTEX
  8
DEFAULT
 10
0.3655
 20
0.0571429
 30
0
  0
VERTEX
  8
DEFAULT
 10
0.368357
 20
0.0485714
 30
0
  0
VERTEX
  8
DEFAULT
 10
0.368357
 20
0.02
 30
0
  0
SEQEND
  0
POLYLINE
  8
DEFAULT
 62
1
 66
     1
 70
     0
 10
0.0
 20
0.0
 30
0.0
  0
VERTEX
  8
DEFAULT
 10
0.451
 20
-0.136071
 30
0
  0
VERTEX
  8
DEFAULT
 10
0.451
 20
-0.1075
 30
0
  0
VERTEX
  8
DEFAULT
 10
0.425286
 20
-0.104643
 30
0
  0
VERTEX
  8
DEFAULT
 10
0.428143
 20
-0.1075
 30
0
  0
VERTEX
  8
DEFAULT
 10
0.431
 20
-0.116071
 30
0
  0
VERTEX
  8
DEFAULT
 10
0.431
 20
-0.124643
 30
0
  0
VERTEX
  8
DEFAULT
 10
0.428143
 20
-0.133214
 30
0
  0
VERTEX
  8
DEFAULT
 10
0.422429
 20
-0.138929
 30
0
  0
VERTEX
  8
DEFAULT
 10
0.413857
 20
-0.141786
 30
0
  0
VERTEX
  8
DEFAULT
 10
0.408143
 20
-0.141786
 30
0
  0
VERTEX
  8
DEFAULT
 10
0.399571
 20
-0.138929
 30
0
  0
VERTEX
  8
DEFAULT
 10
0.393857
 20
-0.133214
 30
0
  0
VERTEX
  8
DEFAULT
 10
0.391
 20
-0.124643
 30
0
  0
VERTEX
  8
DEFAULT
 10
0.391
 20
-0.116071
 30
0
  0
VERTEX
  8
DEFAULT
 10
0.393857
 20
-0.1075
 30
0
  0
VERTEX
  8
DEFAULT
 10
0.396714
 20
-0.104643
 30
0
  0
VERTEX
  8
DEFAULT
 10
0.402429
 20
-0.101786
 30
0
  0
SEQEND
  0
POLYLINE
  8
DEFAULT
 62
1
 66
     1
 70
     0
 10
0.0
 20
0.0
 30
0.0
  0
VERTEX
  8
DEFAULT
 10
0.451
 20
-0.198929
 30
0
  0
VERTEX
  8
DEFAULT
 10
0.391
 20
-0.170357
 30
0
  0
SEQEND
  0
POLYLINE
  8
DEFAULT
 62
1
 66
     1
 70
     0
 10
0.0
 20
0.0
 30
0.0
  0
VERTEX
  8
DEFAULT
 10
0.451
 20
-0.158929
 30
0
  0
VERTEX
  8
DEFAULT
 10
0.451
 20
-0.198929
 30
0
  0
SEQEND
  0
POLYLINE
  8
DEFAULT
 62
1
 66
     1
 70
     0
 10
0.0
 20
0.0
 30
0.0
  0
VERTEX
  8
DEFAULT
 10
0.451
 20
-0.250357
 30
0
  0
VERTEX
  8
DEFAULT
 10
0.451
 20
-0.221786
 30
0
  0
VERTEX
  8
DEFAULT
 10
0.425286
 20
-0.218929
 30
0
  0
VERTEX
  8
DEFAULT
 10
0.428143
 20
-0.221786
 30
0
  0
VERTEX
  8
DEFAULT
 10
0.431
 20
-0.230357
 30
0
  0
VERTEX
  8
DEFAULT
 10
0.431
 20
-0.238929
 30
0
  0
VERTEX
  8
DEFAULT
 10
0.428143
 20
-0.2475
 30
0
  0
VERTEX
  8
DEFAULT
 10
0.422429
 20
-0.253214
 30
0
  0
VERTEX
  8
DEFAULT
 10
0.413857
 20
-0.256071
 30
0
  0
VERTEX
  8
DEFAULT
 10
0.408143
 20
-0.256071
 30
0
  0
VERTEX
  8
DEFAULT
 10
0.399571
 20
-0.253214
 30
0
  0
VERTEX
  8
DEFAULT
 10
0.393857
 20
-0.2475
 30
0
  0
VERTEX
  8
DEFAULT
 10
0.391
 20
-0.238929
 30
0
  0
VERTEX
  8
DEFAULT
 10
0.391
 20
-0.230357
 30
0
  0
VERTEX
  8
DEFAULT
 10
0.393857
 20
-0.221786
 30
0
  0
VERTEX
  8
DEFAULT
 10
0.396714
 20
-0.218929
 30
0
  0
VERTEX
  8
DEFAULT
 10
0.402429
 20
-0.216071
 30
0
  0
SEQEND
  0
POLYLINE
  8
DEFAULT
 62
1
 66
     1
 70
     0
 10
0.0
 20
0.0
 30
0.0
  0
VERTEX
  8
DEFAULT
 10
0.431
 20
-0.321786
 30
0
  0
VERTEX
  8
DEFAULT
 10
0.391
 20
-0.321786
 30
0
  0
SEQEND
  0
POLYLINE
  8
DEFAULT
 62
1
 66
     1
 70
     0
 10
0.0
 20
0.0
 30
0.0
  0
VERTEX
  8
DEFAULT
 10
0.419571
 20
-0.321786
 30
0
  0
VERTEX
  8
DEFAULT
 10
0.428143
 20
-0.330357
 30
0
  0
VERTEX
  8
DEFAULT
 10
0.431
 20
-0.336071
 30
0
  0
VERTEX
  8
DEFAULT
 10
0.431
 20
-0.344643
 30
0
  0
VERTEX
  8
DEFAULT
 10
0.428143
 20
-0.350357
 30
0
  0
VERTEX
  8
DEFAULT
 10
0.419571
 20
-0.353214
 30
0
  0
VERTEX
  8
DEFAULT
 10
0.391
 20
-0.353214
 30
0
  0
SEQEND
  0
POLYLINE
  8
DEFAULT
 62
1
 66
     1
 70
     0
 10
0.0
 20
0.0
 30
0.0
  0
VERTEX
  8
DEFAULT
 10
0.419571
 20
-0.353214
 30
0
  0
VERTEX
  8
DEFAULT
 10
0.428143
 20
-0.361786
 30
0
  0
VERTEX
  8
DEFAULT
 10
0.431
 20
-0.3675
 30
0
  0
VERTEX
  8
DEFAULT
 10
0.431
 20
-0.376071
 30
0
  0
VERTEX
  8
DEFAULT
 10
0.428143
 20
-0.381786
 30
0
  0
VERTEX
  8
DEFAULT
 10
0.419571
 20
-0.384643
 30
0
  0
VERTEX
  8
DEFAULT
 10
0.391
 20
-0.384643
 30
0
  0
SEQEND
  0
POLYLINE
  8
DEFAULT
 62
1
 66
     1
 70
     0
 10
0.0
 20
0.0
 30
0.0
  0
VERTEX
  8
DEFAULT
 10
0.431
 20
-0.4075
 30
0
  0
VERTEX
  8
DEFAULT
 10
0.391
 20
-0.4075
 30
0
  0
SEQEND
  0
POLYLINE
  8
DEFAULT
 62
1
 66
     1
 70
     0
 10
0.0
 20
0.0
 30
0.0
  0
VERTEX
  8
DEFAULT
 10
0.419571
 20
-0.4075
 30
0
  0
VERTEX
  8
DEFAULT
 10
0.428143
 20
-0.416071
 30
0
  0
VERTEX
  8
DEFAULT
 10
0.431
 20
-0.421786
 30
0
  0
VERTEX
  8
DEFAULT
 10
0.431
 20
-0.430357
 30
0
  0
VERTEX
  8
DEFAULT
 10
0.428143
 20
-0.436071
 30
0
  0
VERTEX
  8
DEFAULT
 10
0.419571
 20
-0.438929
 30
0
  0
VERTEX
  8
DEFAULT
 10
0.391
 20
-0.438929
 30
0
  0
SEQEND
  0
POLYLINE
  8
DEFAULT
 62
1
 66
     1
 70
     0
 10
0.0
 20
0.0
 30
0.0
  0
VERTEX
  8
DEFAULT
 10
0.419571
 20
-0.438929
 30
0
  0
VERTEX
  8
DEFAULT
 10
0.428143
 20
-0.4475
 30
0
  0
VERTEX
  8
DEFAULT
 10
0.431
 20
-0.453214
 30
0
  0
VERTEX
  8
DEFAULT
 10
0.431
 20
-0.461786
 30
0
  0
VERTEX
  8
DEFAULT
 10
0.428143
 20
-0.4675
 30
0
  0
VERTEX
  8
DEFAULT
 10
0.419571
 20
-0.470357
 30
0
  0
VERTEX
  8
DEFAULT
 10
0.391
 20
-0.470357
 30
0
  0
SEQEND
  0
LINE
  8
72_GSX_ZU_D2_GRAPHIK
  6
CONTINUOUS
 10
0.055
 20
-0.077
 30
0
 11
0.055
 21
-0.575
 31
0
  0
LINE
  8
72_GSX_ZU_D2_GRAPHIK
  6
CONTINUOUS
 10
0.055
 20
-0.575
 30
0
 11
0.371
 21
-0.575
 31
0
  0
LINE
  8
72_GSX_ZU_D2_GRAPHIK
  6
CONTINUOUS
 10
0.371
 20
-0.575
 30
0
 11
0.371
 21
-0.077
 31
0
  0
LINE
  8
72_GSX_ZU_D2_GRAPHIK
  6
CONTINUOUS
 10
0.371
 20
-0.077
 30
0
 11
0.055
 21
-0.077
 31
0
  0
LINE
  8
72_GSX_ZU_D2_GRAPHIK
  6
CONTINUOUS
 10
0.055
 20
-0.326
 30
0
 11
0.371
 21
-0.326
 31
0
  0
LINE
  8
72_GSX_ZU_D2SNAP
  6
CONTINUOUS
 10
-0.059751
 20
-0.059751
 30
0
 11
0.059751
 21
0.059751
 31
0
  0
LINE
  8
72_GSX_ZU_D2SNAP
  6
CONTINUOUS
 10
-0.059751
 20
0.059751
 30
0
 11
0.059751
 21
-0.059751
 31
0
  0
CIRCLE
  8
72_GSX_ZU_D2SNAP
  6
CONTINUOUS
 10
0
 20
0
 30
0
 40
0.05
  0
ENDBLK
  8
0
  0
ENDSEC
  0
SECTION
  2
ENTITIES
  0
INSERT
  8
72OFGO3D01_ANY
  2
OB__000003
 10
0.0
 20
0.0
 30
0.0
  0
INSERT
  8
72OFGO2D01_GRAFIK
  2
OB2D__000004
 10
0.0
 20
0.0
 30
0.0
  0
ENDSEC
  0
EOF
