  0
SECTION
  2
HEADER
  9
$ACADVER
  1
AC1009
  9
$INSBASE
 10
0.0
 20
0.0
 30
0.0
  9
$EXTMIN
 10
0
 20
-0.627
 30
0
  9
$EXTMAX
 10
0.43
 20
0
 30
0.542
  0
ENDSEC
  0
SECTION
  2
TABLES
  0
TABLE
  2
LTYPE
 70
     2
  0
LTYPE
  2
CONTINUOUS
 70
    64
  3
________
 72
    65
 73
     0
 40
0.0
  0
LTYPE
  2
DASHED
 70
     0
  3
__ __ __
 72
    65
 73
     2
 40
0.75
 49
0.5
 49
-0.25
  0
LTYPE
  2
DOT
 70
     0
  3
. . . .
 72
    65
 73
     2
 40
0.25
 49
0.0
 49
-0.25
  0
LTYPE
  2
DASHDOT
 70
     0
  3
_ . _ .
 72
    65
 73
     4
 40
1.0
 49
0.5
 49
-0.25
 49
-0.0
 49
-0.25
  0
LTYPE
  2
DASHDOUBLEDOT
 70
     0
  3
__..__..
 72
    65
 73
     6
 40
1.25
 49
0.5
 49
-0.25
 49
-0.0
 49
-0.25
 49
-0.0
 49
-0.25
  0
LTYPE
  2
DASHTRIPLEDOT
 70
     0
  3
__...__...__
 72
    65
 73
     8
 40
1.5
 49
0.5
 49
-0.25
 49
-0.0
 49
-0.25
 49
-0.0
 49
-0.25
 49
-0.0
 49
-0.25
  0
ENDTAB
  0
TABLE
  2
LAYER
 70
    32
  0
LAYER
  2
0
 70
    64
 62
     7
  6
CONTINUOUS
  0
LAYER
  2
72_GSX_TC_D2SNAP
 70
    64
 62
     7
  6
CONTINUOUS
  0
LAYER
  2
72_GSX_TC_D2DETAIL_DETAIL
 70
    64
 62
     7
  6
CONTINUOUS
  0
LAYER
  2
72_GSX_TC_D2_GRAPHIK
 70
    64
 62
     7
  6
CONTINUOUS
  0
LAYER
  2
72_GSX_CO_D2SNAP
 70
    64
 62
     7
  6
CONTINUOUS
  0
LAYER
  2
72_GSX_CO_D2_TEXT_DE
 70
    64
 62
     7
  6
CONTINUOUS
  0
LAYER
  2
72_GSX_CO_D2_GRAPHIK
 70
    64
 62
     7
  6
CONTINUOUS
  0
LAYER
  2
72_GSX_ZU_D2SNAP
 70
    64
 62
     7
  6
CONTINUOUS
  0
LAYER
  2
72_GSX_ZU_D2_GRAPHIK
 70
    64
 62
     7
  6
CONTINUOUS
  0
LAYER
  2
72_GSX_RL_D2_GRAPHIK
 70
    64
 62
     7
  6
CONTINUOUS
  0
LAYER
  2
72_GSX_RL_D2SNAP
 70
    64
 62
     7
  6
CONTINUOUS
  0
LAYER
  2
AttachPoint
 70
    64
 62
     7
  6
CONTINUOUS
  0
LAYER
  2
72_GSX_ZU_D2DETAIL_DETAIL
 70
    64
 62
     7
  6
CONTINUOUS
  0
LAYER
  2
72_GSX_RL_D2DETAIL_DETAIL
 70
    64
 62
     7
  6
CONTINUOUS
  0
LAYER
  2
72_GSX_BS_D2SNAP
 70
    64
 62
     7
  6
CONTINUOUS
  0
LAYER
  2
72_GSX_BS_D2_SYMBOL
 70
    64
 62
     7
  6
CONTINUOUS
  0
LAYER
  2
72_GSX_BS_D2_GRAPHIK
 70
    64
 62
     7
  6
CONTINUOUS
  0
LAYER
  2
72_GSX_BS_D2_TEXT_DE
 70
    64
 62
     7
  6
CONTINUOUS
  0
LAYER
  2
72_GSX_BS_D2DETAIL_DETAIL
 70
    64
 62
     7
  6
CONTINUOUS
  0
LAYER
  2
72_GSX_IV_D2SNAP
 70
    64
 62
     7
  6
CONTINUOUS
  0
LAYER
  2
72_GSX_IV_D2DETAIL_DETAIL
 70
    64
 62
     7
  6
CONTINUOUS
  0
LAYER
  2
72_GSX_IV_D2_GRAPHIK
 70
    64
 62
     7
  6
CONTINUOUS
  0
LAYER
  2
72_GSX_ZL_D2_GRAPHIK
 70
    64
 62
     7
  6
CONTINUOUS
  0
LAYER
  2
72_GSX_ZL_D2SNAP
 70
    64
 62
     7
  6
CONTINUOUS
  0
LAYER
  2
72_GSX_CO_D2DETAIL_DETAIL
 70
    64
 62
     7
  6
CONTINUOUS
  0
LAYER
  2
0
 70
    64
 62
     7
  6
CONTINUOUS
  0
LAYER
  2
72OFGO3D01_ANY
 70
    64
 62
     1
  6
CONTINUOUS
  0
LAYER
  2
72OFGO3D01_ANY
 70
    64
 62
     1
  6
CONTINUOUS
  0
LAYER
  2
72OFGO3D01_CO__GRIFF__F14
 70
    64
 62
     1
  6
CONTINUOUS
  0
LAYER
  2
72OFGO3D01_G__FS2
 70
    64
 62
     1
  6
CONTINUOUS
  0
LAYER
  2
72OFGO3D01_G__FS3
 70
    64
 62
     1
  6
CONTINUOUS
  0
LAYER
  2
72OFGO2D01_GRAFIK
 70
    64
 62
     1
  6
CONTINUOUS
  0
ENDTAB
  0
TABLE
  2
STYLE
 70
     1
  0
STYLE
  2
STANDARD
 70
     0
 40
0.0
 41
1.0
 50
0.0
 71
     0
 42
0.2
  3
txt
  4

  0
ENDTAB
  0
TABLE
  2
APPID
 70
    64
  0
APPID
  2
ACAD
 70
    64
  0
APPID
  2
OFML_10
 70
    64
  0
ENDTAB
  0
ENDSEC
  0
SECTION
  2
BLOCKS
  0
BLOCK
  8
0
  2
OB__000000
 70
    64
 10
0.0
 20
0.0
 30
0.0
  3
OB__000000
  0
POLYLINE
  8
72OFGO3D01_G__FS3
 66
     1
 70
    64
 71
8
 72
24
 10
0.0
 20
0.0
 30
0.0
  0
VERTEX
  8
72OFGO3D01_G__FS3
 10
1
 20
0
 30
0
 70
    192
  0
VERTEX
  8
72OFGO3D01_G__FS3
 10
1
 20
-0.019
 30
0
 70
    192
  0
VERTEX
  8
72OFGO3D01_G__FS3
 10
0
 20
-0.019
 30
0
 70
    192
  0
VERTEX
  8
72OFGO3D01_G__FS3
 10
0
 20
0
 30
0
 70
    192
  0
VERTEX
  8
72OFGO3D01_G__FS3
 10
1
 20
0
 30
1
 70
    192
  0
VERTEX
  8
72OFGO3D01_G__FS3
 10
1
 20
-0.019
 30
1
 70
    192
  0
VERTEX
  8
72OFGO3D01_G__FS3
 10
0
 20
-0.019
 30
1
 70
    192
  0
VERTEX
  8
72OFGO3D01_G__FS3
 10
0
 20
0
 30
1
 70
    192
  0
VERTEX
  8
72OFGO3D01_G__FS3
 10
0.0
 20
0.0
 30
0.0
 70
   128
 62
  31
 71
  1
 72
  2
 73
 -3
  0
VERTEX
  8
72OFGO3D01_G__FS3
 10
0.0
 20
0.0
 30
0.0
 70
   128
 62
  31
 71
 -1
 72
  3
 73
  4
  0
VERTEX
  8
72OFGO3D01_G__FS3
 10
0.0
 20
0.0
 30
0.0
 70
   128
 62
  31
 71
 -4
 72
 -3
 73
 -2
  0
VERTEX
  8
72OFGO3D01_G__FS3
 10
0.0
 20
0.0
 30
0.0
 70
   128
 62
  31
 71
 -4
 72
 -2
 73
 -1
  0
VERTEX
  8
72OFGO3D01_G__FS3
 10
0.0
 20
0.0
 30
0.0
 70
   128
 62
  31
 71
  5
 72
  6
 73
 -2
  0
VERTEX
  8
72OFGO3D01_G__FS3
 10
0.0
 20
0.0
 30
0.0
 70
   128
 62
  31
 71
 -5
 72
  2
 73
  1
  0
VERTEX
  8
72OFGO3D01_G__FS3
 10
0.0
 20
0.0
 30
0.0
 70
   128
 62
  31
 71
 -1
 72
 -2
 73
 -6
  0
VERTEX
  8
72OFGO3D01_G__FS3
 10
0.0
 20
0.0
 30
0.0
 70
   128
 62
  31
 71
 -1
 72
 -6
 73
 -5
  0
VERTEX
  8
72OFGO3D01_G__FS3
 10
0.0
 20
0.0
 30
0.0
 70
   128
 62
  31
 71
  3
 72
  2
 73
 -6
  0
VERTEX
  8
72OFGO3D01_G__FS3
 10
0.0
 20
0.0
 30
0.0
 70
   128
 62
  31
 71
 -3
 72
  6
 73
  7
  0
VERTEX
  8
72OFGO3D01_G__FS3
 10
0.0
 20
0.0
 30
0.0
 70
   128
 62
  31
 71
 -7
 72
 -6
 73
 -2
  0
VERTEX
  8
72OFGO3D01_G__FS3
 10
0.0
 20
0.0
 30
0.0
 70
   128
 62
  31
 71
 -7
 72
 -2
 73
 -3
  0
VERTEX
  8
72OFGO3D01_G__FS3
 10
0.0
 20
0.0
 30
0.0
 70
   128
 62
  31
 71
  4
 72
  1
 73
 -5
  0
VERTEX
  8
72OFGO3D01_G__FS3
 10
0.0
 20
0.0
 30
0.0
 70
   128
 62
  31
 71
 -4
 72
  5
 73
  8
  0
VERTEX
  8
72OFGO3D01_G__FS3
 10
0.0
 20
0.0
 30
0.0
 70
   128
 62
  31
 71
 -8
 72
 -5
 73
 -1
  0
VERTEX
  8
72OFGO3D01_G__FS3
 10
0.0
 20
0.0
 30
0.0
 70
   128
 62
  31
 71
 -8
 72
 -1
 73
 -4
  0
VERTEX
  8
72OFGO3D01_G__FS3
 10
0.0
 20
0.0
 30
0.0
 70
   128
 62
  31
 71
  8
 72
  7
 73
 -6
  0
VERTEX
  8
72OFGO3D01_G__FS3
 10
0.0
 20
0.0
 30
0.0
 70
   128
 62
  31
 71
 -8
 72
  6
 73
  5
  0
VERTEX
  8
72OFGO3D01_G__FS3
 10
0.0
 20
0.0
 30
0.0
 70
   128
 62
  31
 71
 -5
 72
 -6
 73
 -7
  0
VERTEX
  8
72OFGO3D01_G__FS3
 10
0.0
 20
0.0
 30
0.0
 70
   128
 62
  31
 71
 -5
 72
 -7
 73
 -8
  0
VERTEX
  8
72OFGO3D01_G__FS3
 10
0.0
 20
0.0
 30
0.0
 70
   128
 62
  31
 71
  4
 72
  3
 73
 -7
  0
VERTEX
  8
72OFGO3D01_G__FS3
 10
0.0
 20
0.0
 30
0.0
 70
   128
 62
  31
 71
 -4
 72
  7
 73
  8
  0
VERTEX
  8
72OFGO3D01_G__FS3
 10
0.0
 20
0.0
 30
0.0
 70
   128
 62
  31
 71
 -8
 72
 -7
 73
 -3
  0
VERTEX
  8
72OFGO3D01_G__FS3
 10
0.0
 20
0.0
 30
0.0
 70
   128
 62
  31
 71
 -8
 72
 -3
 73
 -4
  0
SEQEND
  0
ENDBLK
  8
0
  0
BLOCK
  8
0
  2
OB__000001
 70
    64
 10
0.0
 20
0.0
 30
0.0
  3
OB__000001
  0
INSERT
  8
72OFGO3D01_G__FS3
  2
OB__000000
 10
0.019
 20
-0.0025
 30
0.064
 41
0.392
 42
1
 43
0.453
  0
ENDBLK
  8
0
  0
BLOCK
  8
0
  2
OB__000002
 70
    64
 10
0.0
 20
0.0
 30
0.0
  3
OB__000002
  0
POLYLINE
  8
72OFGO3D01_G__FS3
 66
     1
 70
    64
 71
8
 72
24
 10
0.0
 20
0.0
 30
0.0
  0
VERTEX
  8
72OFGO3D01_G__FS3
 10
0
 20
-1
 30
0
 70
    192
  0
VERTEX
  8
72OFGO3D01_G__FS3
 10
0.019
 20
-1
 30
0
 70
    192
  0
VERTEX
  8
72OFGO3D01_G__FS3
 10
0.019
 20
-1
 30
1
 70
    192
  0
VERTEX
  8
72OFGO3D01_G__FS3
 10
0
 20
-1
 30
1
 70
    192
  0
VERTEX
  8
72OFGO3D01_G__FS3
 10
0.019
 20
0
 30
0
 70
    192
  0
VERTEX
  8
72OFGO3D01_G__FS3
 10
0.019
 20
0
 30
1
 70
    192
  0
VERTEX
  8
72OFGO3D01_G__FS3
 10
0
 20
0
 30
0
 70
    192
  0
VERTEX
  8
72OFGO3D01_G__FS3
 10
0
 20
0
 30
1
 70
    192
  0
VERTEX
  8
72OFGO3D01_G__FS3
 10
0.0
 20
0.0
 30
0.0
 70
   128
 62
  31
 71
  1
 72
  2
 73
 -3
  0
VERTEX
  8
72OFGO3D01_G__FS3
 10
0.0
 20
0.0
 30
0.0
 70
   128
 62
  31
 71
 -1
 72
  3
 73
  4
  0
VERTEX
  8
72OFGO3D01_G__FS3
 10
0.0
 20
0.0
 30
0.0
 70
   128
 62
  31
 71
 -4
 72
 -3
 73
 -2
  0
VERTEX
  8
72OFGO3D01_G__FS3
 10
0.0
 20
0.0
 30
0.0
 70
   128
 62
  31
 71
 -4
 72
 -2
 73
 -1
  0
VERTEX
  8
72OFGO3D01_G__FS3
 10
0.0
 20
0.0
 30
0.0
 70
   128
 62
  31
 71
  5
 72
  2
 73
 -3
  0
VERTEX
  8
72OFGO3D01_G__FS3
 10
0.0
 20
0.0
 30
0.0
 70
   128
 62
  31
 71
 -5
 72
  3
 73
  6
  0
VERTEX
  8
72OFGO3D01_G__FS3
 10
0.0
 20
0.0
 30
0.0
 70
   128
 62
  31
 71
 -6
 72
 -3
 73
 -2
  0
VERTEX
  8
72OFGO3D01_G__FS3
 10
0.0
 20
0.0
 30
0.0
 70
   128
 62
  31
 71
 -6
 72
 -2
 73
 -5
  0
VERTEX
  8
72OFGO3D01_G__FS3
 10
0.0
 20
0.0
 30
0.0
 70
   128
 62
  31
 71
  7
 72
  1
 73
 -4
  0
VERTEX
  8
72OFGO3D01_G__FS3
 10
0.0
 20
0.0
 30
0.0
 70
   128
 62
  31
 71
 -7
 72
  4
 73
  8
  0
VERTEX
  8
72OFGO3D01_G__FS3
 10
0.0
 20
0.0
 30
0.0
 70
   128
 62
  31
 71
 -8
 72
 -4
 73
 -1
  0
VERTEX
  8
72OFGO3D01_G__FS3
 10
0.0
 20
0.0
 30
0.0
 70
   128
 62
  31
 71
 -8
 72
 -1
 73
 -7
  0
VERTEX
  8
72OFGO3D01_G__FS3
 10
0.0
 20
0.0
 30
0.0
 70
   128
 62
  31
 71
  7
 72
  5
 73
 -2
  0
VERTEX
  8
72OFGO3D01_G__FS3
 10
0.0
 20
0.0
 30
0.0
 70
   128
 62
  31
 71
 -7
 72
  2
 73
  1
  0
VERTEX
  8
72OFGO3D01_G__FS3
 10
0.0
 20
0.0
 30
0.0
 70
   128
 62
  31
 71
 -1
 72
 -2
 73
 -5
  0
VERTEX
  8
72OFGO3D01_G__FS3
 10
0.0
 20
0.0
 30
0.0
 70
   128
 62
  31
 71
 -1
 72
 -5
 73
 -7
  0
VERTEX
  8
72OFGO3D01_G__FS3
 10
0.0
 20
0.0
 30
0.0
 70
   128
 62
  31
 71
  4
 72
  3
 73
 -6
  0
VERTEX
  8
72OFGO3D01_G__FS3
 10
0.0
 20
0.0
 30
0.0
 70
   128
 62
  31
 71
 -4
 72
  6
 73
  8
  0
VERTEX
  8
72OFGO3D01_G__FS3
 10
0.0
 20
0.0
 30
0.0
 70
   128
 62
  31
 71
 -8
 72
 -6
 73
 -3
  0
VERTEX
  8
72OFGO3D01_G__FS3
 10
0.0
 20
0.0
 30
0.0
 70
   128
 62
  31
 71
 -8
 72
 -3
 73
 -4
  0
VERTEX
  8
72OFGO3D01_G__FS3
 10
0.0
 20
0.0
 30
0.0
 70
   128
 62
  31
 71
  8
 72
  6
 73
 -5
  0
VERTEX
  8
72OFGO3D01_G__FS3
 10
0.0
 20
0.0
 30
0.0
 70
   128
 62
  31
 71
 -8
 72
  5
 73
  7
  0
VERTEX
  8
72OFGO3D01_G__FS3
 10
0.0
 20
0.0
 30
0.0
 70
   128
 62
  31
 71
 -7
 72
 -5
 73
 -6
  0
VERTEX
  8
72OFGO3D01_G__FS3
 10
0.0
 20
0.0
 30
0.0
 70
   128
 62
  31
 71
 -7
 72
 -6
 73
 -8
  0
SEQEND
  0
ENDBLK
  8
0
  0
BLOCK
  8
0
  2
OB__000003
 70
    64
 10
0.0
 20
0.0
 30
0.0
  3
OB__000003
  0
INSERT
  8
72OFGO3D01_G__FS3
  2
OB__000002
 10
0
 20
0
 30
0.064
 41
1
 42
0.58
 43
0.453
  0
ENDBLK
  8
0
  0
BLOCK
  8
0
  2
OB__000004
 70
    64
 10
0.0
 20
0.0
 30
0.0
  3
OB__000004
  0
POLYLINE
  8
72OFGO3D01_G__FS3
 66
     1
 70
    64
 71
8
 72
24
 10
0.0
 20
0.0
 30
0.0
  0
VERTEX
  8
72OFGO3D01_G__FS3
 10
-0.019
 20
0
 30
0
 70
    192
  0
VERTEX
  8
72OFGO3D01_G__FS3
 10
0
 20
0
 30
0
 70
    192
  0
VERTEX
  8
72OFGO3D01_G__FS3
 10
0
 20
-1
 30
0
 70
    192
  0
VERTEX
  8
72OFGO3D01_G__FS3
 10
-0.019
 20
-1
 30
0
 70
    192
  0
VERTEX
  8
72OFGO3D01_G__FS3
 10
-0.019
 20
-1
 30
1
 70
    192
  0
VERTEX
  8
72OFGO3D01_G__FS3
 10
-0.019
 20
0
 30
1
 70
    192
  0
VERTEX
  8
72OFGO3D01_G__FS3
 10
0
 20
-1
 30
1
 70
    192
  0
VERTEX
  8
72OFGO3D01_G__FS3
 10
0
 20
0
 30
1
 70
    192
  0
VERTEX
  8
72OFGO3D01_G__FS3
 10
0.0
 20
0.0
 30
0.0
 70
   128
 62
  31
 71
  1
 72
  2
 73
 -3
  0
VERTEX
  8
72OFGO3D01_G__FS3
 10
0.0
 20
0.0
 30
0.0
 70
   128
 62
  31
 71
 -1
 72
  3
 73
  4
  0
VERTEX
  8
72OFGO3D01_G__FS3
 10
0.0
 20
0.0
 30
0.0
 70
   128
 62
  31
 71
 -4
 72
 -3
 73
 -2
  0
VERTEX
  8
72OFGO3D01_G__FS3
 10
0.0
 20
0.0
 30
0.0
 70
   128
 62
  31
 71
 -4
 72
 -2
 73
 -1
  0
VERTEX
  8
72OFGO3D01_G__FS3
 10
0.0
 20
0.0
 30
0.0
 70
   128
 62
  31
 71
  1
 72
  4
 73
 -5
  0
VERTEX
  8
72OFGO3D01_G__FS3
 10
0.0
 20
0.0
 30
0.0
 70
   128
 62
  31
 71
 -1
 72
  5
 73
  6
  0
VERTEX
  8
72OFGO3D01_G__FS3
 10
0.0
 20
0.0
 30
0.0
 70
   128
 62
  31
 71
 -6
 72
 -5
 73
 -4
  0
VERTEX
  8
72OFGO3D01_G__FS3
 10
0.0
 20
0.0
 30
0.0
 70
   128
 62
  31
 71
 -6
 72
 -4
 73
 -1
  0
VERTEX
  8
72OFGO3D01_G__FS3
 10
0.0
 20
0.0
 30
0.0
 70
   128
 62
  31
 71
  2
 72
  3
 73
 -7
  0
VERTEX
  8
72OFGO3D01_G__FS3
 10
0.0
 20
0.0
 30
0.0
 70
   128
 62
  31
 71
 -2
 72
  7
 73
  8
  0
VERTEX
  8
72OFGO3D01_G__FS3
 10
0.0
 20
0.0
 30
0.0
 70
   128
 62
  31
 71
 -8
 72
 -7
 73
 -3
  0
VERTEX
  8
72OFGO3D01_G__FS3
 10
0.0
 20
0.0
 30
0.0
 70
   128
 62
  31
 71
 -8
 72
 -3
 73
 -2
  0
VERTEX
  8
72OFGO3D01_G__FS3
 10
0.0
 20
0.0
 30
0.0
 70
   128
 62
  31
 71
  4
 72
  3
 73
 -7
  0
VERTEX
  8
72OFGO3D01_G__FS3
 10
0.0
 20
0.0
 30
0.0
 70
   128
 62
  31
 71
 -4
 72
  7
 73
  5
  0
VERTEX
  8
72OFGO3D01_G__FS3
 10
0.0
 20
0.0
 30
0.0
 70
   128
 62
  31
 71
 -5
 72
 -7
 73
 -3
  0
VERTEX
  8
72OFGO3D01_G__FS3
 10
0.0
 20
0.0
 30
0.0
 70
   128
 62
  31
 71
 -5
 72
 -3
 73
 -4
  0
VERTEX
  8
72OFGO3D01_G__FS3
 10
0.0
 20
0.0
 30
0.0
 70
   128
 62
  31
 71
  5
 72
  7
 73
 -8
  0
VERTEX
  8
72OFGO3D01_G__FS3
 10
0.0
 20
0.0
 30
0.0
 70
   128
 62
  31
 71
 -5
 72
  8
 73
  6
  0
VERTEX
  8
72OFGO3D01_G__FS3
 10
0.0
 20
0.0
 30
0.0
 70
   128
 62
  31
 71
 -6
 72
 -8
 73
 -7
  0
VERTEX
  8
72OFGO3D01_G__FS3
 10
0.0
 20
0.0
 30
0.0
 70
   128
 62
  31
 71
 -6
 72
 -7
 73
 -5
  0
VERTEX
  8
72OFGO3D01_G__FS3
 10
0.0
 20
0.0
 30
0.0
 70
   128
 62
  31
 71
  6
 72
  8
 73
 -2
  0
VERTEX
  8
72OFGO3D01_G__FS3
 10
0.0
 20
0.0
 30
0.0
 70
   128
 62
  31
 71
 -6
 72
  2
 73
  1
  0
VERTEX
  8
72OFGO3D01_G__FS3
 10
0.0
 20
0.0
 30
0.0
 70
   128
 62
  31
 71
 -1
 72
 -2
 73
 -8
  0
VERTEX
  8
72OFGO3D01_G__FS3
 10
0.0
 20
0.0
 30
0.0
 70
   128
 62
  31
 71
 -1
 72
 -8
 73
 -6
  0
SEQEND
  0
ENDBLK
  8
0
  0
BLOCK
  8
0
  2
OB__000005
 70
    64
 10
0.0
 20
0.0
 30
0.0
  3
OB__000005
  0
INSERT
  8
72OFGO3D01_G__FS3
  2
OB__000004
 10
0.43
 20
0
 30
0.064
 41
1
 42
0.58
 43
0.453
  0
ENDBLK
  8
0
  0
BLOCK
  8
0
  2
OB__000006
 70
    64
 10
0.0
 20
0.0
 30
0.0
  3
OB__000006
  0
POLYLINE
  8
72OFGO3D01_G__FS3
 66
     1
 70
    64
 71
8
 72
24
 10
0.0
 20
0.0
 30
0.0
  0
VERTEX
  8
72OFGO3D01_G__FS3
 10
1
 20
0
 30
0.019
 70
    192
  0
VERTEX
  8
72OFGO3D01_G__FS3
 10
1
 20
0
 30
0
 70
    192
  0
VERTEX
  8
72OFGO3D01_G__FS3
 10
0
 20
0
 30
0
 70
    192
  0
VERTEX
  8
72OFGO3D01_G__FS3
 10
0
 20
0
 30
0.019
 70
    192
  0
VERTEX
  8
72OFGO3D01_G__FS3
 10
1
 20
-1
 30
0.019
 70
    192
  0
VERTEX
  8
72OFGO3D01_G__FS3
 10
1
 20
-1
 30
0
 70
    192
  0
VERTEX
  8
72OFGO3D01_G__FS3
 10
0
 20
-1
 30
0.019
 70
    192
  0
VERTEX
  8
72OFGO3D01_G__FS3
 10
0
 20
-1
 30
0
 70
    192
  0
VERTEX
  8
72OFGO3D01_G__FS3
 10
0.0
 20
0.0
 30
0.0
 70
   128
 62
  31
 71
  1
 72
  2
 73
 -3
  0
VERTEX
  8
72OFGO3D01_G__FS3
 10
0.0
 20
0.0
 30
0.0
 70
   128
 62
  31
 71
 -1
 72
  3
 73
  4
  0
VERTEX
  8
72OFGO3D01_G__FS3
 10
0.0
 20
0.0
 30
0.0
 70
   128
 62
  31
 71
 -4
 72
 -3
 73
 -2
  0
VERTEX
  8
72OFGO3D01_G__FS3
 10
0.0
 20
0.0
 30
0.0
 70
   128
 62
  31
 71
 -4
 72
 -2
 73
 -1
  0
VERTEX
  8
72OFGO3D01_G__FS3
 10
0.0
 20
0.0
 30
0.0
 70
   128
 62
  31
 71
  5
 72
  6
 73
 -2
  0
VERTEX
  8
72OFGO3D01_G__FS3
 10
0.0
 20
0.0
 30
0.0
 70
   128
 62
  31
 71
 -5
 72
  2
 73
  1
  0
VERTEX
  8
72OFGO3D01_G__FS3
 10
0.0
 20
0.0
 30
0.0
 70
   128
 62
  31
 71
 -1
 72
 -2
 73
 -6
  0
VERTEX
  8
72OFGO3D01_G__FS3
 10
0.0
 20
0.0
 30
0.0
 70
   128
 62
  31
 71
 -1
 72
 -6
 73
 -5
  0
VERTEX
  8
72OFGO3D01_G__FS3
 10
0.0
 20
0.0
 30
0.0
 70
   128
 62
  31
 71
  4
 72
  7
 73
 -5
  0
VERTEX
  8
72OFGO3D01_G__FS3
 10
0.0
 20
0.0
 30
0.0
 70
   128
 62
  31
 71
 -4
 72
  5
 73
  1
  0
VERTEX
  8
72OFGO3D01_G__FS3
 10
0.0
 20
0.0
 30
0.0
 70
   128
 62
  31
 71
 -1
 72
 -5
 73
 -7
  0
VERTEX
  8
72OFGO3D01_G__FS3
 10
0.0
 20
0.0
 30
0.0
 70
   128
 62
  31
 71
 -1
 72
 -7
 73
 -4
  0
VERTEX
  8
72OFGO3D01_G__FS3
 10
0.0
 20
0.0
 30
0.0
 70
   128
 62
  31
 71
  3
 72
  8
 73
 -6
  0
VERTEX
  8
72OFGO3D01_G__FS3
 10
0.0
 20
0.0
 30
0.0
 70
   128
 62
  31
 71
 -3
 72
  6
 73
  2
  0
VERTEX
  8
72OFGO3D01_G__FS3
 10
0.0
 20
0.0
 30
0.0
 70
   128
 62
  31
 71
 -2
 72
 -6
 73
 -8
  0
VERTEX
  8
72OFGO3D01_G__FS3
 10
0.0
 20
0.0
 30
0.0
 70
   128
 62
  31
 71
 -2
 72
 -8
 73
 -3
  0
VERTEX
  8
72OFGO3D01_G__FS3
 10
0.0
 20
0.0
 30
0.0
 70
   128
 62
  31
 71
  7
 72
  8
 73
 -6
  0
VERTEX
  8
72OFGO3D01_G__FS3
 10
0.0
 20
0.0
 30
0.0
 70
   128
 62
  31
 71
 -7
 72
  6
 73
  5
  0
VERTEX
  8
72OFGO3D01_G__FS3
 10
0.0
 20
0.0
 30
0.0
 70
   128
 62
  31
 71
 -5
 72
 -6
 73
 -8
  0
VERTEX
  8
72OFGO3D01_G__FS3
 10
0.0
 20
0.0
 30
0.0
 70
   128
 62
  31
 71
 -5
 72
 -8
 73
 -7
  0
VERTEX
  8
72OFGO3D01_G__FS3
 10
0.0
 20
0.0
 30
0.0
 70
   128
 62
  31
 71
  3
 72
  4
 73
 -7
  0
VERTEX
  8
72OFGO3D01_G__FS3
 10
0.0
 20
0.0
 30
0.0
 70
   128
 62
  31
 71
 -3
 72
  7
 73
  8
  0
VERTEX
  8
72OFGO3D01_G__FS3
 10
0.0
 20
0.0
 30
0.0
 70
   128
 62
  31
 71
 -8
 72
 -7
 73
 -4
  0
VERTEX
  8
72OFGO3D01_G__FS3
 10
0.0
 20
0.0
 30
0.0
 70
   128
 62
  31
 71
 -8
 72
 -4
 73
 -3
  0
SEQEND
  0
ENDBLK
  8
0
  0
BLOCK
  8
0
  2
OB__000007
 70
    64
 10
0.0
 20
0.0
 30
0.0
  3
OB__000007
  0
INSERT
  8
72OFGO3D01_G__FS3
  2
OB__000006
 10
0
 20
0
 30
0.045
 41
0.43
 42
0.6
 43
1
  0
ENDBLK
  8
0
  0
BLOCK
  8
0
  2
OB__000008
 70
    64
 10
0.0
 20
0.0
 30
0.0
  3
OB__000008
  0
POLYLINE
  8
72OFGO3D01_ANY
 66
     1
 70
    64
 71
136
 72
528
 10
0.0
 20
0.0
 30
0.0
  0
VERTEX
  8
72OFGO3D01_ANY
 10
0.0455
 20
-0.0365
 30
0.0185
 70
    192
  0
VERTEX
  8
72OFGO3D01_ANY
 10
0.038
 20
-0.0365
 30
0.0185
 70
    192
  0
VERTEX
  8
72OFGO3D01_ANY
 10
0.0455
 20
-0.037389
 30
0.024167
 70
    192
  0
VERTEX
  8
72OFGO3D01_ANY
 10
0.044738
 20
-0.040706
 30
0.030244
 70
    192
  0
VERTEX
  8
72OFGO3D01_ANY
 10
0.0455
 20
-0.039972
 30
0.02929
 70
    192
  0
VERTEX
  8
72OFGO3D01_ANY
 10
0.042935
 20
-0.038353
 30
0.026569
 70
    192
  0
VERTEX
  8
72OFGO3D01_ANY
 10
0.0455
 20
-0.044
 30
0.033374
 70
    192
  0
VERTEX
  8
72OFGO3D01_ANY
 10
0.045031
 20
-0.04661
 30
0.034988
 70
    192
  0
VERTEX
  8
72OFGO3D01_ANY
 10
0.0455
 20
-0.051411
 30
0.036648
 70
    192
  0
VERTEX
  8
72OFGO3D01_ANY
 10
0.043503
 20
-0.049095
 30
0.036032
 70
    192
  0
VERTEX
  8
72OFGO3D01_ANY
 10
0.041031
 20
-0.05086
 30
0.036531
 70
    192
  0
VERTEX
  8
72OFGO3D01_ANY
 10
0.038
 20
-0.0515
 30
0.036666
 70
    192
  0
VERTEX
  8
72OFGO3D01_ANY
 10
0.0305
 20
-0.051411
 30
0.036648
 70
    192
  0
VERTEX
  8
72OFGO3D01_ANY
 10
0.034969
 20
-0.05086
 30
0.036531
 70
    192
  0
VERTEX
  8
72OFGO3D01_ANY
 10
0.032497
 20
-0.049095
 30
0.036032
 70
    192
  0
VERTEX
  8
72OFGO3D01_ANY
 10
0.030969
 20
-0.04661
 30
0.034988
 70
    192
  0
VERTEX
  8
72OFGO3D01_ANY
 10
0.0305
 20
-0.044
 30
0.033374
 70
    192
  0
VERTEX
  8
72OFGO3D01_ANY
 10
0.0305
 20
-0.05951
 30
0.036442
 70
    192
  0
VERTEX
  8
72OFGO3D01_ANY
 10
0.0305
 20
-0.066744
 30
0.032794
 70
    192
  0
VERTEX
  8
72OFGO3D01_ANY
 10
0.0455
 20
-0.05951
 30
0.036442
 70
    192
  0
VERTEX
  8
72OFGO3D01_ANY
 10
0.0455
 20
-0.066744
 30
0.032794
 70
    192
  0
VERTEX
  8
72OFGO3D01_ANY
 10
0.0305
 20
-0.0735
 30
0.0185
 70
    192
  0
VERTEX
  8
72OFGO3D01_ANY
 10
0.0455
 20
-0.0735
 30
0.0185
 70
    192
  0
VERTEX
  8
72OFGO3D01_ANY
 10
0.0305
 20
-0.071726
 30
0.026405
 70
    192
  0
VERTEX
  8
72OFGO3D01_ANY
 10
0.0455
 20
-0.071726
 30
0.026405
 70
    192
  0
VERTEX
  8
72OFGO3D01_ANY
 10
0.031262
 20
-0.040706
 30
0.030244
 70
    192
  0
VERTEX
  8
72OFGO3D01_ANY
 10
0.0305
 20
-0.039972
 30
0.02929
 70
    192
  0
VERTEX
  8
72OFGO3D01_ANY
 10
0.033065
 20
-0.038353
 30
0.026569
 70
    192
  0
VERTEX
  8
72OFGO3D01_ANY
 10
0.0305
 20
-0.037389
 30
0.024167
 70
    192
  0
VERTEX
  8
72OFGO3D01_ANY
 10
0.0305
 20
-0.0365
 30
0.0185
 70
    192
  0
VERTEX
  8
72OFGO3D01_ANY
 10
0.0305
 20
-0.04201
 30
0.026
 70
    192
  0
VERTEX
  8
72OFGO3D01_ANY
 10
0.0305
 20
-0.04
 30
0.0185
 70
    192
  0
VERTEX
  8
72OFGO3D01_ANY
 10
0.0305
 20
-0.0475
 30
0.03149
 70
    192
  0
VERTEX
  8
72OFGO3D01_ANY
 10
0.0305
 20
-0.0625
 30
0.03149
 70
    192
  0
VERTEX
  8
72OFGO3D01_ANY
 10
0.0305
 20
-0.055
 30
0.0335
 70
    192
  0
VERTEX
  8
72OFGO3D01_ANY
 10
0.0305
 20
-0.07
 30
0.0185
 70
    192
  0
VERTEX
  8
72OFGO3D01_ANY
 10
0.0305
 20
-0.06799
 30
0.026
 70
    192
  0
VERTEX
  8
72OFGO3D01_ANY
 10
0.0455
 20
-0.07
 30
0.0185
 70
    192
  0
VERTEX
  8
72OFGO3D01_ANY
 10
0.0455
 20
-0.0475
 30
0.03149
 70
    192
  0
VERTEX
  8
72OFGO3D01_ANY
 10
0.0455
 20
-0.055
 30
0.0335
 70
    192
  0
VERTEX
  8
72OFGO3D01_ANY
 10
0.0455
 20
-0.0625
 30
0.03149
 70
    192
  0
VERTEX
  8
72OFGO3D01_ANY
 10
0.0455
 20
-0.06799
 30
0.026
 70
    192
  0
VERTEX
  8
72OFGO3D01_ANY
 10
0.0455
 20
-0.04201
 30
0.026
 70
    192
  0
VERTEX
  8
72OFGO3D01_ANY
 10
0.0455
 20
-0.04
 30
0.0185
 70
    192
  0
VERTEX
  8
72OFGO3D01_ANY
 10
0.03425
 20
-0.037505
 30
0.0425
 70
    192
  0
VERTEX
  8
72OFGO3D01_ANY
 10
0.031505
 20
-0.04025
 30
0.0425
 70
    192
  0
VERTEX
  8
72OFGO3D01_ANY
 10
0.0305
 20
-0.044
 30
0.0425
 70
    192
  0
VERTEX
  8
72OFGO3D01_ANY
 10
0.031505
 20
-0.04775
 30
0.0425
 70
    192
  0
VERTEX
  8
72OFGO3D01_ANY
 10
0.03425
 20
-0.050495
 30
0.0425
 70
    192
  0
VERTEX
  8
72OFGO3D01_ANY
 10
0.038
 20
-0.0515
 30
0.0425
 70
    192
  0
VERTEX
  8
72OFGO3D01_ANY
 10
0.04175
 20
-0.050495
 30
0.0425
 70
    192
  0
VERTEX
  8
72OFGO3D01_ANY
 10
0.044495
 20
-0.04775
 30
0.0425
 70
    192
  0
VERTEX
  8
72OFGO3D01_ANY
 10
0.0455
 20
-0.044
 30
0.0425
 70
    192
  0
VERTEX
  8
72OFGO3D01_ANY
 10
0.044495
 20
-0.04025
 30
0.0425
 70
    192
  0
VERTEX
  8
72OFGO3D01_ANY
 10
0.04175
 20
-0.037505
 30
0.0425
 70
    192
  0
VERTEX
  8
72OFGO3D01_ANY
 10
0.038
 20
-0.0365
 30
0.0425
 70
    192
  0
VERTEX
  8
72OFGO3D01_ANY
 10
0.0655
 20
-0.013
 30
0.045
 70
    192
  0
VERTEX
  8
72OFGO3D01_ANY
 10
0.0105
 20
-0.013
 30
0.045
 70
    192
  0
VERTEX
  8
72OFGO3D01_ANY
 10
0.0655
 20
-0.09
 30
0.045
 70
    192
  0
VERTEX
  8
72OFGO3D01_ANY
 10
0.0105
 20
-0.09
 30
0.045
 70
    192
  0
VERTEX
  8
72OFGO3D01_ANY
 10
0.0105
 20
-0.09
 30
0.0425
 70
    192
  0
VERTEX
  8
72OFGO3D01_ANY
 10
0.0655
 20
-0.09
 30
0.0425
 70
    192
  0
VERTEX
  8
72OFGO3D01_ANY
 10
0.0655
 20
-0.013
 30
0.0425
 70
    192
  0
VERTEX
  8
72OFGO3D01_ANY
 10
0.0105
 20
-0.013
 30
0.0425
 70
    192
  0
VERTEX
  8
72OFGO3D01_ANY
 10
0.0295
 20
-0.05
 30
0.00984
 70
    192
  0
VERTEX
  8
72OFGO3D01_ANY
 10
0.0465
 20
-0.05
 30
0.00984
 70
    192
  0
VERTEX
  8
72OFGO3D01_ANY
 10
0.0295
 20
-0.055
 30
0.0085
 70
    192
  0
VERTEX
  8
72OFGO3D01_ANY
 10
0.0465
 20
-0.04634
 30
0.0135
 70
    192
  0
VERTEX
  8
72OFGO3D01_ANY
 10
0.0295
 20
-0.045
 30
0.0185
 70
    192
  0
VERTEX
  8
72OFGO3D01_ANY
 10
0.0465
 20
-0.045
 30
0.0185
 70
    192
  0
VERTEX
  8
72OFGO3D01_ANY
 10
0.0295
 20
-0.04634
 30
0.0135
 70
    192
  0
VERTEX
  8
72OFGO3D01_ANY
 10
0.0465
 20
-0.04634
 30
0.0235
 70
    192
  0
VERTEX
  8
72OFGO3D01_ANY
 10
0.0295
 20
-0.05
 30
0.02716
 70
    192
  0
VERTEX
  8
72OFGO3D01_ANY
 10
0.0465
 20
-0.05
 30
0.02716
 70
    192
  0
VERTEX
  8
72OFGO3D01_ANY
 10
0.0295
 20
-0.04634
 30
0.0235
 70
    192
  0
VERTEX
  8
72OFGO3D01_ANY
 10
0.0465
 20
-0.055
 30
0.0285
 70
    192
  0
VERTEX
  8
72OFGO3D01_ANY
 10
0.0295
 20
-0.06
 30
0.02716
 70
    192
  0
VERTEX
  8
72OFGO3D01_ANY
 10
0.0465
 20
-0.06
 30
0.02716
 70
    192
  0
VERTEX
  8
72OFGO3D01_ANY
 10
0.0295
 20
-0.055
 30
0.0285
 70
    192
  0
VERTEX
  8
72OFGO3D01_ANY
 10
0.0465
 20
-0.06366
 30
0.0235
 70
    192
  0
VERTEX
  8
72OFGO3D01_ANY
 10
0.0295
 20
-0.065
 30
0.0185
 70
    192
  0
VERTEX
  8
72OFGO3D01_ANY
 10
0.0465
 20
-0.065
 30
0.0185
 70
    192
  0
VERTEX
  8
72OFGO3D01_ANY
 10
0.0295
 20
-0.06366
 30
0.0235
 70
    192
  0
VERTEX
  8
72OFGO3D01_ANY
 10
0.0465
 20
-0.06366
 30
0.0135
 70
    192
  0
VERTEX
  8
72OFGO3D01_ANY
 10
0.0295
 20
-0.06
 30
0.00984
 70
    192
  0
VERTEX
  8
72OFGO3D01_ANY
 10
0.0465
 20
-0.06
 30
0.00984
 70
    192
  0
VERTEX
  8
72OFGO3D01_ANY
 10
0.0295
 20
-0.06366
 30
0.0135
 70
    192
  0
VERTEX
  8
72OFGO3D01_ANY
 10
0.0465
 20
-0.055
 30
0.0085
 70
    192
  0
VERTEX
  8
72OFGO3D01_ANY
 10
0.0465
 20
-0.04575
 30
0.002479
 70
    192
  0
VERTEX
  8
72OFGO3D01_ANY
 10
0.0615
 20
-0.04575
 30
0.002479
 70
    192
  0
VERTEX
  8
72OFGO3D01_ANY
 10
0.0465
 20
-0.055
 30
0
 70
    192
  0
VERTEX
  8
72OFGO3D01_ANY
 10
0.0615
 20
-0.038979
 30
0.00925
 70
    192
  0
VERTEX
  8
72OFGO3D01_ANY
 10
0.0465
 20
-0.0365
 30
0.0185
 70
    192
  0
VERTEX
  8
72OFGO3D01_ANY
 10
0.0615
 20
-0.0365
 30
0.0185
 70
    192
  0
VERTEX
  8
72OFGO3D01_ANY
 10
0.0465
 20
-0.038979
 30
0.00925
 70
    192
  0
VERTEX
  8
72OFGO3D01_ANY
 10
0.0615
 20
-0.038979
 30
0.02775
 70
    192
  0
VERTEX
  8
72OFGO3D01_ANY
 10
0.0465
 20
-0.04575
 30
0.034521
 70
    192
  0
VERTEX
  8
72OFGO3D01_ANY
 10
0.0615
 20
-0.04575
 30
0.034521
 70
    192
  0
VERTEX
  8
72OFGO3D01_ANY
 10
0.0465
 20
-0.038979
 30
0.02775
 70
    192
  0
VERTEX
  8
72OFGO3D01_ANY
 10
0.0615
 20
-0.055
 30
0.037
 70
    192
  0
VERTEX
  8
72OFGO3D01_ANY
 10
0.0465
 20
-0.06425
 30
0.034521
 70
    192
  0
VERTEX
  8
72OFGO3D01_ANY
 10
0.0615
 20
-0.06425
 30
0.034521
 70
    192
  0
VERTEX
  8
72OFGO3D01_ANY
 10
0.0465
 20
-0.055
 30
0.037
 70
    192
  0
VERTEX
  8
72OFGO3D01_ANY
 10
0.0615
 20
-0.071021
 30
0.02775
 70
    192
  0
VERTEX
  8
72OFGO3D01_ANY
 10
0.0465
 20
-0.0735
 30
0.0185
 70
    192
  0
VERTEX
  8
72OFGO3D01_ANY
 10
0.0615
 20
-0.0735
 30
0.0185
 70
    192
  0
VERTEX
  8
72OFGO3D01_ANY
 10
0.0465
 20
-0.071021
 30
0.02775
 70
    192
  0
VERTEX
  8
72OFGO3D01_ANY
 10
0.0615
 20
-0.071021
 30
0.00925
 70
    192
  0
VERTEX
  8
72OFGO3D01_ANY
 10
0.0465
 20
-0.06425
 30
0.002479
 70
    192
  0
VERTEX
  8
72OFGO3D01_ANY
 10
0.0615
 20
-0.06425
 30
0.002479
 70
    192
  0
VERTEX
  8
72OFGO3D01_ANY
 10
0.0465
 20
-0.071021
 30
0.00925
 70
    192
  0
VERTEX
  8
72OFGO3D01_ANY
 10
0.0615
 20
-0.055
 30
0
 70
    192
  0
VERTEX
  8
72OFGO3D01_ANY
 10
0.0145
 20
-0.04575
 30
0.002479
 70
    192
  0
VERTEX
  8
72OFGO3D01_ANY
 10
0.0295
 20
-0.04575
 30
0.002479
 70
    192
  0
VERTEX
  8
72OFGO3D01_ANY
 10
0.0145
 20
-0.055
 30
0
 70
    192
  0
VERTEX
  8
72OFGO3D01_ANY
 10
0.0295
 20
-0.038979
 30
0.00925
 70
    192
  0
VERTEX
  8
72OFGO3D01_ANY
 10
0.0145
 20
-0.0365
 30
0.0185
 70
    192
  0
VERTEX
  8
72OFGO3D01_ANY
 10
0.0295
 20
-0.0365
 30
0.0185
 70
    192
  0
VERTEX
  8
72OFGO3D01_ANY
 10
0.0145
 20
-0.038979
 30
0.00925
 70
    192
  0
VERTEX
  8
72OFGO3D01_ANY
 10
0.0295
 20
-0.038979
 30
0.02775
 70
    192
  0
VERTEX
  8
72OFGO3D01_ANY
 10
0.0145
 20
-0.04575
 30
0.034521
 70
    192
  0
VERTEX
  8
72OFGO3D01_ANY
 10
0.0295
 20
-0.04575
 30
0.034521
 70
    192
  0
VERTEX
  8
72OFGO3D01_ANY
 10
0.0145
 20
-0.038979
 30
0.02775
 70
    192
  0
VERTEX
  8
72OFGO3D01_ANY
 10
0.0295
 20
-0.055
 30
0.037
 70
    192
  0
VERTEX
  8
72OFGO3D01_ANY
 10
0.0145
 20
-0.06425
 30
0.034521
 70
    192
  0
VERTEX
  8
72OFGO3D01_ANY
 10
0.0295
 20
-0.06425
 30
0.034521
 70
    192
  0
VERTEX
  8
72OFGO3D01_ANY
 10
0.0145
 20
-0.055
 30
0.037
 70
    192
  0
VERTEX
  8
72OFGO3D01_ANY
 10
0.0295
 20
-0.071021
 30
0.02775
 70
    192
  0
VERTEX
  8
72OFGO3D01_ANY
 10
0.0145
 20
-0.0735
 30
0.0185
 70
    192
  0
VERTEX
  8
72OFGO3D01_ANY
 10
0.0295
 20
-0.0735
 30
0.0185
 70
    192
  0
VERTEX
  8
72OFGO3D01_ANY
 10
0.0145
 20
-0.071021
 30
0.02775
 70
    192
  0
VERTEX
  8
72OFGO3D01_ANY
 10
0.0295
 20
-0.071021
 30
0.00925
 70
    192
  0
VERTEX
  8
72OFGO3D01_ANY
 10
0.0145
 20
-0.06425
 30
0.002479
 70
    192
  0
VERTEX
  8
72OFGO3D01_ANY
 10
0.0295
 20
-0.06425
 30
0.002479
 70
    192
  0
VERTEX
  8
72OFGO3D01_ANY
 10
0.0145
 20
-0.071021
 30
0.00925
 70
    192
  0
VERTEX
  8
72OFGO3D01_ANY
 10
0.0295
 20
-0.055
 30
0
 70
    192
  0
VERTEX
  8
72OFGO3D01_ANY
 10
0.0
 20
0.0
 30
0.0
 70
   128
 62
  250
 71
  1
 72
  2
 73
  3
  0
VERTEX
  8
72OFGO3D01_ANY
 10
0.0
 20
0.0
 30
0.0
 70
   128
 62
  250
 71
 -3
 72
 -2
 73
 -1
  0
VERTEX
  8
72OFGO3D01_ANY
 10
0.0
 20
0.0
 30
0.0
 70
   128
 62
  250
 71
  4
 72
  5
 73
  6
  0
VERTEX
  8
72OFGO3D01_ANY
 10
0.0
 20
0.0
 30
0.0
 70
   128
 62
  250
 71
 -6
 72
 -5
 73
 -4
  0
VERTEX
  8
72OFGO3D01_ANY
 10
0.0
 20
0.0
 30
0.0
 70
   128
 62
  250
 71
  4
 72
  7
 73
  5
  0
VERTEX
  8
72OFGO3D01_ANY
 10
0.0
 20
0.0
 30
0.0
 70
   128
 62
  250
 71
 -5
 72
 -7
 73
 -4
  0
VERTEX
  8
72OFGO3D01_ANY
 10
0.0
 20
0.0
 30
0.0
 70
   128
 62
  250
 71
  5
 72
  3
 73
  6
  0
VERTEX
  8
72OFGO3D01_ANY
 10
0.0
 20
0.0
 30
0.0
 70
   128
 62
  250
 71
 -6
 72
 -3
 73
 -5
  0
VERTEX
  8
72OFGO3D01_ANY
 10
0.0
 20
0.0
 30
0.0
 70
   128
 62
  250
 71
  3
 72
  2
 73
  6
  0
VERTEX
  8
72OFGO3D01_ANY
 10
0.0
 20
0.0
 30
0.0
 70
   128
 62
  250
 71
 -6
 72
 -2
 73
 -3
  0
VERTEX
  8
72OFGO3D01_ANY
 10
0.0
 20
0.0
 30
0.0
 70
   128
 62
  250
 71
  7
 72
  8
 73
  9
  0
VERTEX
  8
72OFGO3D01_ANY
 10
0.0
 20
0.0
 30
0.0
 70
   128
 62
  250
 71
 -9
 72
 -8
 73
 -7
  0
VERTEX
  8
72OFGO3D01_ANY
 10
0.0
 20
0.0
 30
0.0
 70
   128
 62
  250
 71
  8
 72
  10
 73
  9
  0
VERTEX
  8
72OFGO3D01_ANY
 10
0.0
 20
0.0
 30
0.0
 70
   128
 62
  250
 71
 -9
 72
 -10
 73
 -8
  0
VERTEX
  8
72OFGO3D01_ANY
 10
0.0
 20
0.0
 30
0.0
 70
   128
 62
  250
 71
  10
 72
  11
 73
  9
  0
VERTEX
  8
72OFGO3D01_ANY
 10
0.0
 20
0.0
 30
0.0
 70
   128
 62
  250
 71
 -9
 72
 -11
 73
 -10
  0
VERTEX
  8
72OFGO3D01_ANY
 10
0.0
 20
0.0
 30
0.0
 70
   128
 62
  250
 71
  12
 72
  13
 73
  11
  0
VERTEX
  8
72OFGO3D01_ANY
 10
0.0
 20
0.0
 30
0.0
 70
   128
 62
  250
 71
 -11
 72
 -13
 73
 -12
  0
VERTEX
  8
72OFGO3D01_ANY
 10
0.0
 20
0.0
 30
0.0
 70
   128
 62
  250
 71
  12
 72
  14
 73
  13
  0
VERTEX
  8
72OFGO3D01_ANY
 10
0.0
 20
0.0
 30
0.0
 70
   128
 62
  250
 71
 -13
 72
 -14
 73
 -12
  0
VERTEX
  8
72OFGO3D01_ANY
 10
0.0
 20
0.0
 30
0.0
 70
   128
 62
  250
 71
  14
 72
  15
 73
  13
  0
VERTEX
  8
72OFGO3D01_ANY
 10
0.0
 20
0.0
 30
0.0
 70
   128
 62
  250
 71
 -13
 72
 -15
 73
 -14
  0
VERTEX
  8
72OFGO3D01_ANY
 10
0.0
 20
0.0
 30
0.0
 70
   128
 62
  250
 71
  15
 72
  16
 73
  13
  0
VERTEX
  8
72OFGO3D01_ANY
 10
0.0
 20
0.0
 30
0.0
 70
   128
 62
  250
 71
 -13
 72
 -16
 73
 -15
  0
VERTEX
  8
72OFGO3D01_ANY
 10
0.0
 20
0.0
 30
0.0
 70
   128
 62
  250
 71
  16
 72
  17
 73
  13
  0
VERTEX
  8
72OFGO3D01_ANY
 10
0.0
 20
0.0
 30
0.0
 70
   128
 62
  250
 71
 -13
 72
 -17
 73
 -16
  0
VERTEX
  8
72OFGO3D01_ANY
 10
0.0
 20
0.0
 30
0.0
 70
   128
 62
  250
 71
  13
 72
  18
 73
  11
  0
VERTEX
  8
72OFGO3D01_ANY
 10
0.0
 20
0.0
 30
0.0
 70
   128
 62
  250
 71
 -11
 72
 -18
 73
 -13
  0
VERTEX
  8
72OFGO3D01_ANY
 10
0.0
 20
0.0
 30
0.0
 70
   128
 62
  250
 71
  19
 72
  20
 73
  18
  0
VERTEX
  8
72OFGO3D01_ANY
 10
0.0
 20
0.0
 30
0.0
 70
   128
 62
  250
 71
 -18
 72
 -20
 73
 -19
  0
VERTEX
  8
72OFGO3D01_ANY
 10
0.0
 20
0.0
 30
0.0
 70
   128
 62
  250
 71
  20
 72
  19
 73
  21
  0
VERTEX
  8
72OFGO3D01_ANY
 10
0.0
 20
0.0
 30
0.0
 70
   128
 62
  250
 71
 -21
 72
 -19
 73
 -20
  0
VERTEX
  8
72OFGO3D01_ANY
 10
0.0
 20
0.0
 30
0.0
 70
   128
 62
  250
 71
  22
 72
  23
 73
  24
  0
VERTEX
  8
72OFGO3D01_ANY
 10
0.0
 20
0.0
 30
0.0
 70
   128
 62
  250
 71
 -24
 72
 -23
 73
 -22
  0
VERTEX
  8
72OFGO3D01_ANY
 10
0.0
 20
0.0
 30
0.0
 70
   128
 62
  250
 71
  23
 72
  25
 73
  24
  0
VERTEX
  8
72OFGO3D01_ANY
 10
0.0
 20
0.0
 30
0.0
 70
   128
 62
  250
 71
 -24
 72
 -25
 73
 -23
  0
VERTEX
  8
72OFGO3D01_ANY
 10
0.0
 20
0.0
 30
0.0
 70
   128
 62
  250
 71
  25
 72
  21
 73
  24
  0
VERTEX
  8
72OFGO3D01_ANY
 10
0.0
 20
0.0
 30
0.0
 70
   128
 62
  250
 71
 -24
 72
 -21
 73
 -25
  0
VERTEX
  8
72OFGO3D01_ANY
 10
0.0
 20
0.0
 30
0.0
 70
   128
 62
  250
 71
  24
 72
  21
 73
  19
  0
VERTEX
  8
72OFGO3D01_ANY
 10
0.0
 20
0.0
 30
0.0
 70
   128
 62
  250
 71
 -19
 72
 -21
 73
 -24
  0
VERTEX
  8
72OFGO3D01_ANY
 10
0.0
 20
0.0
 30
0.0
 70
   128
 62
  250
 71
  20
 72
  9
 73
  18
  0
VERTEX
  8
72OFGO3D01_ANY
 10
0.0
 20
0.0
 30
0.0
 70
   128
 62
  250
 71
 -18
 72
 -9
 73
 -20
  0
VERTEX
  8
72OFGO3D01_ANY
 10
0.0
 20
0.0
 30
0.0
 70
   128
 62
  250
 71
  11
 72
  18
 73
  9
  0
VERTEX
  8
72OFGO3D01_ANY
 10
0.0
 20
0.0
 30
0.0
 70
   128
 62
  250
 71
 -9
 72
 -18
 73
 -11
  0
VERTEX
  8
72OFGO3D01_ANY
 10
0.0
 20
0.0
 30
0.0
 70
   128
 62
  250
 71
  17
 72
  26
 73
  27
  0
VERTEX
  8
72OFGO3D01_ANY
 10
0.0
 20
0.0
 30
0.0
 70
   128
 62
  250
 71
 -27
 72
 -26
 73
 -17
  0
VERTEX
  8
72OFGO3D01_ANY
 10
0.0
 20
0.0
 30
0.0
 70
   128
 62
  250
 71
  26
 72
  28
 73
  27
  0
VERTEX
  8
72OFGO3D01_ANY
 10
0.0
 20
0.0
 30
0.0
 70
   128
 62
  250
 71
 -27
 72
 -28
 73
 -26
  0
VERTEX
  8
72OFGO3D01_ANY
 10
0.0
 20
0.0
 30
0.0
 70
   128
 62
  250
 71
  27
 72
  28
 73
  29
  0
VERTEX
  8
72OFGO3D01_ANY
 10
0.0
 20
0.0
 30
0.0
 70
   128
 62
  250
 71
 -29
 72
 -28
 73
 -27
  0
VERTEX
  8
72OFGO3D01_ANY
 10
0.0
 20
0.0
 30
0.0
 70
   128
 62
  250
 71
  30
 72
  29
 73
  2
  0
VERTEX
  8
72OFGO3D01_ANY
 10
0.0
 20
0.0
 30
0.0
 70
   128
 62
  250
 71
 -2
 72
 -29
 73
 -30
  0
VERTEX
  8
72OFGO3D01_ANY
 10
0.0
 20
0.0
 30
0.0
 70
   128
 62
  250
 71
  2
 72
  29
 73
  28
  0
VERTEX
  8
72OFGO3D01_ANY
 10
0.0
 20
0.0
 30
0.0
 70
   128
 62
  250
 71
 -28
 72
 -29
 73
 -2
  0
VERTEX
  8
72OFGO3D01_ANY
 10
0.0
 20
0.0
 30
0.0
 70
   128
 62
  250
 71
  27
 72
  31
 73
  17
  0
VERTEX
  8
72OFGO3D01_ANY
 10
0.0
 20
0.0
 30
0.0
 70
   128
 62
  250
 71
 -17
 72
 -31
 73
 -27
  0
VERTEX
  8
72OFGO3D01_ANY
 10
0.0
 20
0.0
 30
0.0
 70
   128
 62
  250
 71
  27
 72
  29
 73
  31
  0
VERTEX
  8
72OFGO3D01_ANY
 10
0.0
 20
0.0
 30
0.0
 70
   128
 62
  250
 71
 -31
 72
 -29
 73
 -27
  0
VERTEX
  8
72OFGO3D01_ANY
 10
0.0
 20
0.0
 30
0.0
 70
   128
 62
  250
 71
  30
 72
  32
 73
  29
  0
VERTEX
  8
72OFGO3D01_ANY
 10
0.0
 20
0.0
 30
0.0
 70
   128
 62
  250
 71
 -29
 72
 -32
 73
 -30
  0
VERTEX
  8
72OFGO3D01_ANY
 10
0.0
 20
0.0
 30
0.0
 70
   128
 62
  250
 71
  32
 72
  31
 73
  29
  0
VERTEX
  8
72OFGO3D01_ANY
 10
0.0
 20
0.0
 30
0.0
 70
   128
 62
  250
 71
 -29
 72
 -31
 73
 -32
  0
VERTEX
  8
72OFGO3D01_ANY
 10
0.0
 20
0.0
 30
0.0
 70
   128
 62
  250
 71
  31
 72
  33
 73
  17
  0
VERTEX
  8
72OFGO3D01_ANY
 10
0.0
 20
0.0
 30
0.0
 70
   128
 62
  250
 71
 -17
 72
 -33
 73
 -31
  0
VERTEX
  8
72OFGO3D01_ANY
 10
0.0
 20
0.0
 30
0.0
 70
   128
 62
  250
 71
  17
 72
  33
 73
  13
  0
VERTEX
  8
72OFGO3D01_ANY
 10
0.0
 20
0.0
 30
0.0
 70
   128
 62
  250
 71
 -13
 72
 -33
 73
 -17
  0
VERTEX
  8
72OFGO3D01_ANY
 10
0.0
 20
0.0
 30
0.0
 70
   128
 62
  250
 71
  34
 72
  18
 73
  35
  0
VERTEX
  8
72OFGO3D01_ANY
 10
0.0
 20
0.0
 30
0.0
 70
   128
 62
  250
 71
 -35
 72
 -18
 73
 -34
  0
VERTEX
  8
72OFGO3D01_ANY
 10
0.0
 20
0.0
 30
0.0
 70
   128
 62
  250
 71
  18
 72
  34
 73
  19
  0
VERTEX
  8
72OFGO3D01_ANY
 10
0.0
 20
0.0
 30
0.0
 70
   128
 62
  250
 71
 -19
 72
 -34
 73
 -18
  0
VERTEX
  8
72OFGO3D01_ANY
 10
0.0
 20
0.0
 30
0.0
 70
   128
 62
  250
 71
  36
 72
  24
 73
  37
  0
VERTEX
  8
72OFGO3D01_ANY
 10
0.0
 20
0.0
 30
0.0
 70
   128
 62
  250
 71
 -37
 72
 -24
 73
 -36
  0
VERTEX
  8
72OFGO3D01_ANY
 10
0.0
 20
0.0
 30
0.0
 70
   128
 62
  250
 71
  36
 72
  22
 73
  24
  0
VERTEX
  8
72OFGO3D01_ANY
 10
0.0
 20
0.0
 30
0.0
 70
   128
 62
  250
 71
 -24
 72
 -22
 73
 -36
  0
VERTEX
  8
72OFGO3D01_ANY
 10
0.0
 20
0.0
 30
0.0
 70
   128
 62
  250
 71
  24
 72
  19
 73
  37
  0
VERTEX
  8
72OFGO3D01_ANY
 10
0.0
 20
0.0
 30
0.0
 70
   128
 62
  250
 71
 -37
 72
 -19
 73
 -24
  0
VERTEX
  8
72OFGO3D01_ANY
 10
0.0
 20
0.0
 30
0.0
 70
   128
 62
  250
 71
  37
 72
  19
 73
  34
  0
VERTEX
  8
72OFGO3D01_ANY
 10
0.0
 20
0.0
 30
0.0
 70
   128
 62
  250
 71
 -34
 72
 -19
 73
 -37
  0
VERTEX
  8
72OFGO3D01_ANY
 10
0.0
 20
0.0
 30
0.0
 70
   128
 62
  250
 71
  18
 72
  13
 73
  35
  0
VERTEX
  8
72OFGO3D01_ANY
 10
0.0
 20
0.0
 30
0.0
 70
   128
 62
  250
 71
 -35
 72
 -13
 73
 -18
  0
VERTEX
  8
72OFGO3D01_ANY
 10
0.0
 20
0.0
 30
0.0
 70
   128
 62
  250
 71
  35
 72
  13
 73
  33
  0
VERTEX
  8
72OFGO3D01_ANY
 10
0.0
 20
0.0
 30
0.0
 70
   128
 62
  250
 71
 -33
 72
 -13
 73
 -35
  0
VERTEX
  8
72OFGO3D01_ANY
 10
0.0
 20
0.0
 30
0.0
 70
   128
 62
  250
 71
  38
 72
  23
 73
  36
  0
VERTEX
  8
72OFGO3D01_ANY
 10
0.0
 20
0.0
 30
0.0
 70
   128
 62
  250
 71
 -36
 72
 -23
 73
 -38
  0
VERTEX
  8
72OFGO3D01_ANY
 10
0.0
 20
0.0
 30
0.0
 70
   128
 62
  250
 71
  23
 72
  22
 73
  36
  0
VERTEX
  8
72OFGO3D01_ANY
 10
0.0
 20
0.0
 30
0.0
 70
   128
 62
  250
 71
 -36
 72
 -22
 73
 -23
  0
VERTEX
  8
72OFGO3D01_ANY
 10
0.0
 20
0.0
 30
0.0
 70
   128
 62
  250
 71
  9
 72
  39
 73
  7
  0
VERTEX
  8
72OFGO3D01_ANY
 10
0.0
 20
0.0
 30
0.0
 70
   128
 62
  250
 71
 -7
 72
 -39
 73
 -9
  0
VERTEX
  8
72OFGO3D01_ANY
 10
0.0
 20
0.0
 30
0.0
 70
   128
 62
  250
 71
  39
 72
  9
 73
  40
  0
VERTEX
  8
72OFGO3D01_ANY
 10
0.0
 20
0.0
 30
0.0
 70
   128
 62
  250
 71
 -40
 72
 -9
 73
 -39
  0
VERTEX
  8
72OFGO3D01_ANY
 10
0.0
 20
0.0
 30
0.0
 70
   128
 62
  250
 71
  21
 72
  41
 73
  20
  0
VERTEX
  8
72OFGO3D01_ANY
 10
0.0
 20
0.0
 30
0.0
 70
   128
 62
  250
 71
 -20
 72
 -41
 73
 -21
  0
VERTEX
  8
72OFGO3D01_ANY
 10
0.0
 20
0.0
 30
0.0
 70
   128
 62
  250
 71
  41
 72
  21
 73
  42
  0
VERTEX
  8
72OFGO3D01_ANY
 10
0.0
 20
0.0
 30
0.0
 70
   128
 62
  250
 71
 -42
 72
 -21
 73
 -41
  0
VERTEX
  8
72OFGO3D01_ANY
 10
0.0
 20
0.0
 30
0.0
 70
   128
 62
  250
 71
  23
 72
  38
 73
  25
  0
VERTEX
  8
72OFGO3D01_ANY
 10
0.0
 20
0.0
 30
0.0
 70
   128
 62
  250
 71
 -25
 72
 -38
 73
 -23
  0
VERTEX
  8
72OFGO3D01_ANY
 10
0.0
 20
0.0
 30
0.0
 70
   128
 62
  250
 71
  38
 72
  42
 73
  25
  0
VERTEX
  8
72OFGO3D01_ANY
 10
0.0
 20
0.0
 30
0.0
 70
   128
 62
  250
 71
 -25
 72
 -42
 73
 -38
  0
VERTEX
  8
72OFGO3D01_ANY
 10
0.0
 20
0.0
 30
0.0
 70
   128
 62
  250
 71
  25
 72
  42
 73
  21
  0
VERTEX
  8
72OFGO3D01_ANY
 10
0.0
 20
0.0
 30
0.0
 70
   128
 62
  250
 71
 -21
 72
 -42
 73
 -25
  0
VERTEX
  8
72OFGO3D01_ANY
 10
0.0
 20
0.0
 30
0.0
 70
   128
 62
  250
 71
  41
 72
  40
 73
  20
  0
VERTEX
  8
72OFGO3D01_ANY
 10
0.0
 20
0.0
 30
0.0
 70
   128
 62
  250
 71
 -20
 72
 -40
 73
 -41
  0
VERTEX
  8
72OFGO3D01_ANY
 10
0.0
 20
0.0
 30
0.0
 70
   128
 62
  250
 71
  20
 72
  40
 73
  9
  0
VERTEX
  8
72OFGO3D01_ANY
 10
0.0
 20
0.0
 30
0.0
 70
   128
 62
  250
 71
 -9
 72
 -40
 73
 -20
  0
VERTEX
  8
72OFGO3D01_ANY
 10
0.0
 20
0.0
 30
0.0
 70
   128
 62
  250
 71
  39
 72
  43
 73
  7
  0
VERTEX
  8
72OFGO3D01_ANY
 10
0.0
 20
0.0
 30
0.0
 70
   128
 62
  250
 71
 -7
 72
 -43
 73
 -39
  0
VERTEX
  8
72OFGO3D01_ANY
 10
0.0
 20
0.0
 30
0.0
 70
   128
 62
  250
 71
  44
 72
  3
 73
  43
  0
VERTEX
  8
72OFGO3D01_ANY
 10
0.0
 20
0.0
 30
0.0
 70
   128
 62
  250
 71
 -43
 72
 -3
 73
 -44
  0
VERTEX
  8
72OFGO3D01_ANY
 10
0.0
 20
0.0
 30
0.0
 70
   128
 62
  250
 71
  44
 72
  1
 73
  3
  0
VERTEX
  8
72OFGO3D01_ANY
 10
0.0
 20
0.0
 30
0.0
 70
   128
 62
  250
 71
 -3
 72
 -1
 73
 -44
  0
VERTEX
  8
72OFGO3D01_ANY
 10
0.0
 20
0.0
 30
0.0
 70
   128
 62
  250
 71
  3
 72
  5
 73
  43
  0
VERTEX
  8
72OFGO3D01_ANY
 10
0.0
 20
0.0
 30
0.0
 70
   128
 62
  250
 71
 -43
 72
 -5
 73
 -3
  0
VERTEX
  8
72OFGO3D01_ANY
 10
0.0
 20
0.0
 30
0.0
 70
   128
 62
  250
 71
  5
 72
  7
 73
  43
  0
VERTEX
  8
72OFGO3D01_ANY
 10
0.0
 20
0.0
 30
0.0
 70
   128
 62
  250
 71
 -43
 72
 -7
 73
 -5
  0
VERTEX
  8
72OFGO3D01_ANY
 10
0.0
 20
0.0
 30
0.0
 70
   128
 62
  250
 71
  38
 72
  36
 73
  42
  0
VERTEX
  8
72OFGO3D01_ANY
 10
0.0
 20
0.0
 30
0.0
 70
   128
 62
  250
 71
 -42
 72
 -36
 73
 -38
  0
VERTEX
  8
72OFGO3D01_ANY
 10
0.0
 20
0.0
 30
0.0
 70
   128
 62
  250
 71
  34
 72
  41
 73
  37
  0
VERTEX
  8
72OFGO3D01_ANY
 10
0.0
 20
0.0
 30
0.0
 70
   128
 62
  250
 71
 -37
 72
 -41
 73
 -34
  0
VERTEX
  8
72OFGO3D01_ANY
 10
0.0
 20
0.0
 30
0.0
 70
   128
 62
  250
 71
  41
 72
  34
 73
  40
  0
VERTEX
  8
72OFGO3D01_ANY
 10
0.0
 20
0.0
 30
0.0
 70
   128
 62
  250
 71
 -40
 72
 -34
 73
 -41
  0
VERTEX
  8
72OFGO3D01_ANY
 10
0.0
 20
0.0
 30
0.0
 70
   128
 62
  250
 71
  33
 72
  39
 73
  35
  0
VERTEX
  8
72OFGO3D01_ANY
 10
0.0
 20
0.0
 30
0.0
 70
   128
 62
  250
 71
 -35
 72
 -39
 73
 -33
  0
VERTEX
  8
72OFGO3D01_ANY
 10
0.0
 20
0.0
 30
0.0
 70
   128
 62
  250
 71
  39
 72
  33
 73
  43
  0
VERTEX
  8
72OFGO3D01_ANY
 10
0.0
 20
0.0
 30
0.0
 70
   128
 62
  250
 71
 -43
 72
 -33
 73
 -39
  0
VERTEX
  8
72OFGO3D01_ANY
 10
0.0
 20
0.0
 30
0.0
 70
   128
 62
  250
 71
  32
 72
  44
 73
  31
  0
VERTEX
  8
72OFGO3D01_ANY
 10
0.0
 20
0.0
 30
0.0
 70
   128
 62
  250
 71
 -31
 72
 -44
 73
 -32
  0
VERTEX
  8
72OFGO3D01_ANY
 10
0.0
 20
0.0
 30
0.0
 70
   128
 62
  250
 71
  44
 72
  43
 73
  31
  0
VERTEX
  8
72OFGO3D01_ANY
 10
0.0
 20
0.0
 30
0.0
 70
   128
 62
  250
 71
 -31
 72
 -43
 73
 -44
  0
VERTEX
  8
72OFGO3D01_ANY
 10
0.0
 20
0.0
 30
0.0
 70
   128
 62
  250
 71
  31
 72
  43
 73
  33
  0
VERTEX
  8
72OFGO3D01_ANY
 10
0.0
 20
0.0
 30
0.0
 70
   128
 62
  250
 71
 -33
 72
 -43
 73
 -31
  0
VERTEX
  8
72OFGO3D01_ANY
 10
0.0
 20
0.0
 30
0.0
 70
   128
 62
  250
 71
  39
 72
  40
 73
  35
  0
VERTEX
  8
72OFGO3D01_ANY
 10
0.0
 20
0.0
 30
0.0
 70
   128
 62
  250
 71
 -35
 72
 -40
 73
 -39
  0
VERTEX
  8
72OFGO3D01_ANY
 10
0.0
 20
0.0
 30
0.0
 70
   128
 62
  250
 71
  35
 72
  40
 73
  34
  0
VERTEX
  8
72OFGO3D01_ANY
 10
0.0
 20
0.0
 30
0.0
 70
   128
 62
  250
 71
 -34
 72
 -40
 73
 -35
  0
VERTEX
  8
72OFGO3D01_ANY
 10
0.0
 20
0.0
 30
0.0
 70
   128
 62
  250
 71
  41
 72
  42
 73
  37
  0
VERTEX
  8
72OFGO3D01_ANY
 10
0.0
 20
0.0
 30
0.0
 70
   128
 62
  250
 71
 -37
 72
 -42
 73
 -41
  0
VERTEX
  8
72OFGO3D01_ANY
 10
0.0
 20
0.0
 30
0.0
 70
   128
 62
  250
 71
  37
 72
  42
 73
  36
  0
VERTEX
  8
72OFGO3D01_ANY
 10
0.0
 20
0.0
 30
0.0
 70
   128
 62
  250
 71
 -36
 72
 -42
 73
 -37
  0
VERTEX
  8
72OFGO3D01_ANY
 10
0.0
 20
0.0
 30
0.0
 70
   128
 62
  250
 71
  1
 72
  44
 73
  2
  0
VERTEX
  8
72OFGO3D01_ANY
 10
0.0
 20
0.0
 30
0.0
 70
   128
 62
  250
 71
 -2
 72
 -44
 73
 -1
  0
VERTEX
  8
72OFGO3D01_ANY
 10
0.0
 20
0.0
 30
0.0
 70
   128
 62
  250
 71
  30
 72
  2
 73
  32
  0
VERTEX
  8
72OFGO3D01_ANY
 10
0.0
 20
0.0
 30
0.0
 70
   128
 62
  250
 71
 -32
 72
 -2
 73
 -30
  0
VERTEX
  8
72OFGO3D01_ANY
 10
0.0
 20
0.0
 30
0.0
 70
   128
 62
  250
 71
  2
 72
  44
 73
  32
  0
VERTEX
  8
72OFGO3D01_ANY
 10
0.0
 20
0.0
 30
0.0
 70
   128
 62
  250
 71
 -32
 72
 -44
 73
 -2
  0
VERTEX
  8
72OFGO3D01_ANY
 10
0.0
 20
0.0
 30
0.0
 70
   128
 62
  250
 71
  28
 72
  45
 73
  2
  0
VERTEX
  8
72OFGO3D01_ANY
 10
0.0
 20
0.0
 30
0.0
 70
   128
 62
  250
 71
 -2
 72
 -45
 73
 -28
  0
VERTEX
  8
72OFGO3D01_ANY
 10
0.0
 20
0.0
 30
0.0
 70
   128
 62
  250
 71
  45
 72
  28
 73
  46
  0
VERTEX
  8
72OFGO3D01_ANY
 10
0.0
 20
0.0
 30
0.0
 70
   128
 62
  250
 71
 -46
 72
 -28
 73
 -45
  0
VERTEX
  8
72OFGO3D01_ANY
 10
0.0
 20
0.0
 30
0.0
 70
   128
 62
  250
 71
  17
 72
  47
 73
  26
  0
VERTEX
  8
72OFGO3D01_ANY
 10
0.0
 20
0.0
 30
0.0
 70
   128
 62
  250
 71
 -26
 72
 -47
 73
 -17
  0
VERTEX
  8
72OFGO3D01_ANY
 10
0.0
 20
0.0
 30
0.0
 70
   128
 62
  250
 71
  17
 72
  16
 73
  47
  0
VERTEX
  8
72OFGO3D01_ANY
 10
0.0
 20
0.0
 30
0.0
 70
   128
 62
  250
 71
 -47
 72
 -16
 73
 -17
  0
VERTEX
  8
72OFGO3D01_ANY
 10
0.0
 20
0.0
 30
0.0
 70
   128
 62
  250
 71
  47
 72
  16
 73
  48
  0
VERTEX
  8
72OFGO3D01_ANY
 10
0.0
 20
0.0
 30
0.0
 70
   128
 62
  250
 71
 -48
 72
 -16
 73
 -47
  0
VERTEX
  8
72OFGO3D01_ANY
 10
0.0
 20
0.0
 30
0.0
 70
   128
 62
  250
 71
  14
 72
  49
 73
  15
  0
VERTEX
  8
72OFGO3D01_ANY
 10
0.0
 20
0.0
 30
0.0
 70
   128
 62
  250
 71
 -15
 72
 -49
 73
 -14
  0
VERTEX
  8
72OFGO3D01_ANY
 10
0.0
 20
0.0
 30
0.0
 70
   128
 62
  250
 71
  49
 72
  14
 73
  50
  0
VERTEX
  8
72OFGO3D01_ANY
 10
0.0
 20
0.0
 30
0.0
 70
   128
 62
  250
 71
 -50
 72
 -14
 73
 -49
  0
VERTEX
  8
72OFGO3D01_ANY
 10
0.0
 20
0.0
 30
0.0
 70
   128
 62
  250
 71
  14
 72
  12
 73
  50
  0
VERTEX
  8
72OFGO3D01_ANY
 10
0.0
 20
0.0
 30
0.0
 70
   128
 62
  250
 71
 -50
 72
 -12
 73
 -14
  0
VERTEX
  8
72OFGO3D01_ANY
 10
0.0
 20
0.0
 30
0.0
 70
   128
 62
  250
 71
  10
 72
  51
 73
  11
  0
VERTEX
  8
72OFGO3D01_ANY
 10
0.0
 20
0.0
 30
0.0
 70
   128
 62
  250
 71
 -11
 72
 -51
 73
 -10
  0
VERTEX
  8
72OFGO3D01_ANY
 10
0.0
 20
0.0
 30
0.0
 70
   128
 62
  250
 71
  51
 72
  10
 73
  52
  0
VERTEX
  8
72OFGO3D01_ANY
 10
0.0
 20
0.0
 30
0.0
 70
   128
 62
  250
 71
 -52
 72
 -10
 73
 -51
  0
VERTEX
  8
72OFGO3D01_ANY
 10
0.0
 20
0.0
 30
0.0
 70
   128
 62
  250
 71
  7
 72
  53
 73
  8
  0
VERTEX
  8
72OFGO3D01_ANY
 10
0.0
 20
0.0
 30
0.0
 70
   128
 62
  250
 71
 -8
 72
 -53
 73
 -7
  0
VERTEX
  8
72OFGO3D01_ANY
 10
0.0
 20
0.0
 30
0.0
 70
   128
 62
  250
 71
  7
 72
  4
 73
  53
  0
VERTEX
  8
72OFGO3D01_ANY
 10
0.0
 20
0.0
 30
0.0
 70
   128
 62
  250
 71
 -53
 72
 -4
 73
 -7
  0
VERTEX
  8
72OFGO3D01_ANY
 10
0.0
 20
0.0
 30
0.0
 70
   128
 62
  250
 71
  53
 72
  4
 73
  54
  0
VERTEX
  8
72OFGO3D01_ANY
 10
0.0
 20
0.0
 30
0.0
 70
   128
 62
  250
 71
 -54
 72
 -4
 73
 -53
  0
VERTEX
  8
72OFGO3D01_ANY
 10
0.0
 20
0.0
 30
0.0
 70
   128
 62
  250
 71
  2
 72
  55
 73
  6
  0
VERTEX
  8
72OFGO3D01_ANY
 10
0.0
 20
0.0
 30
0.0
 70
   128
 62
  250
 71
 -6
 72
 -55
 73
 -2
  0
VERTEX
  8
72OFGO3D01_ANY
 10
0.0
 20
0.0
 30
0.0
 70
   128
 62
  250
 71
  47
 72
  46
 73
  26
  0
VERTEX
  8
72OFGO3D01_ANY
 10
0.0
 20
0.0
 30
0.0
 70
   128
 62
  250
 71
 -26
 72
 -46
 73
 -47
  0
VERTEX
  8
72OFGO3D01_ANY
 10
0.0
 20
0.0
 30
0.0
 70
   128
 62
  250
 71
  26
 72
  46
 73
  28
  0
VERTEX
  8
72OFGO3D01_ANY
 10
0.0
 20
0.0
 30
0.0
 70
   128
 62
  250
 71
 -28
 72
 -46
 73
 -26
  0
VERTEX
  8
72OFGO3D01_ANY
 10
0.0
 20
0.0
 30
0.0
 70
   128
 62
  250
 71
  45
 72
  56
 73
  2
  0
VERTEX
  8
72OFGO3D01_ANY
 10
0.0
 20
0.0
 30
0.0
 70
   128
 62
  250
 71
 -2
 72
 -56
 73
 -45
  0
VERTEX
  8
72OFGO3D01_ANY
 10
0.0
 20
0.0
 30
0.0
 70
   128
 62
  250
 71
  56
 72
  55
 73
  2
  0
VERTEX
  8
72OFGO3D01_ANY
 10
0.0
 20
0.0
 30
0.0
 70
   128
 62
  250
 71
 -2
 72
 -55
 73
 -56
  0
VERTEX
  8
72OFGO3D01_ANY
 10
0.0
 20
0.0
 30
0.0
 70
   128
 62
  250
 71
  55
 72
  54
 73
  6
  0
VERTEX
  8
72OFGO3D01_ANY
 10
0.0
 20
0.0
 30
0.0
 70
   128
 62
  250
 71
 -6
 72
 -54
 73
 -55
  0
VERTEX
  8
72OFGO3D01_ANY
 10
0.0
 20
0.0
 30
0.0
 70
   128
 62
  250
 71
  6
 72
  54
 73
  4
  0
VERTEX
  8
72OFGO3D01_ANY
 10
0.0
 20
0.0
 30
0.0
 70
   128
 62
  250
 71
 -4
 72
 -54
 73
 -6
  0
VERTEX
  8
72OFGO3D01_ANY
 10
0.0
 20
0.0
 30
0.0
 70
   128
 62
  250
 71
  53
 72
  52
 73
  8
  0
VERTEX
  8
72OFGO3D01_ANY
 10
0.0
 20
0.0
 30
0.0
 70
   128
 62
  250
 71
 -8
 72
 -52
 73
 -53
  0
VERTEX
  8
72OFGO3D01_ANY
 10
0.0
 20
0.0
 30
0.0
 70
   128
 62
  250
 71
  8
 72
  52
 73
  10
  0
VERTEX
  8
72OFGO3D01_ANY
 10
0.0
 20
0.0
 30
0.0
 70
   128
 62
  250
 71
 -10
 72
 -52
 73
 -8
  0
VERTEX
  8
72OFGO3D01_ANY
 10
0.0
 20
0.0
 30
0.0
 70
   128
 62
  250
 71
  51
 72
  50
 73
  11
  0
VERTEX
  8
72OFGO3D01_ANY
 10
0.0
 20
0.0
 30
0.0
 70
   128
 62
  250
 71
 -11
 72
 -50
 73
 -51
  0
VERTEX
  8
72OFGO3D01_ANY
 10
0.0
 20
0.0
 30
0.0
 70
   128
 62
  250
 71
  49
 72
  48
 73
  15
  0
VERTEX
  8
72OFGO3D01_ANY
 10
0.0
 20
0.0
 30
0.0
 70
   128
 62
  250
 71
 -15
 72
 -48
 73
 -49
  0
VERTEX
  8
72OFGO3D01_ANY
 10
0.0
 20
0.0
 30
0.0
 70
   128
 62
  250
 71
  15
 72
  48
 73
  16
  0
VERTEX
  8
72OFGO3D01_ANY
 10
0.0
 20
0.0
 30
0.0
 70
   128
 62
  250
 71
 -16
 72
 -48
 73
 -15
  0
VERTEX
  8
72OFGO3D01_ANY
 10
0.0
 20
0.0
 30
0.0
 70
   128
 62
  250
 71
  50
 72
  12
 73
  11
  0
VERTEX
  8
72OFGO3D01_ANY
 10
0.0
 20
0.0
 30
0.0
 70
   128
 62
  250
 71
 -11
 72
 -12
 73
 -50
  0
VERTEX
  8
72OFGO3D01_ANY
 10
0.0
 20
0.0
 30
0.0
 70
   128
 62
  250
 71
  57
 72
  58
 73
  59
  0
VERTEX
  8
72OFGO3D01_ANY
 10
0.0
 20
0.0
 30
0.0
 70
   128
 62
  250
 71
 -59
 72
 -58
 73
 -57
  0
VERTEX
  8
72OFGO3D01_ANY
 10
0.0
 20
0.0
 30
0.0
 70
   128
 62
  250
 71
  58
 72
  60
 73
  59
  0
VERTEX
  8
72OFGO3D01_ANY
 10
0.0
 20
0.0
 30
0.0
 70
   128
 62
  250
 71
 -59
 72
 -60
 73
 -58
  0
VERTEX
  8
72OFGO3D01_ANY
 10
0.0
 20
0.0
 30
0.0
 70
   128
 62
  250
 71
  48
 72
  61
 73
  47
  0
VERTEX
  8
72OFGO3D01_ANY
 10
0.0
 20
0.0
 30
0.0
 70
   128
 62
  250
 71
 -47
 72
 -61
 73
 -48
  0
VERTEX
  8
72OFGO3D01_ANY
 10
0.0
 20
0.0
 30
0.0
 70
   128
 62
  250
 71
  48
 72
  49
 73
  61
  0
VERTEX
  8
72OFGO3D01_ANY
 10
0.0
 20
0.0
 30
0.0
 70
   128
 62
  250
 71
 -61
 72
 -49
 73
 -48
  0
VERTEX
  8
72OFGO3D01_ANY
 10
0.0
 20
0.0
 30
0.0
 70
   128
 62
  250
 71
  49
 72
  50
 73
  61
  0
VERTEX
  8
72OFGO3D01_ANY
 10
0.0
 20
0.0
 30
0.0
 70
   128
 62
  250
 71
 -61
 72
 -50
 73
 -49
  0
VERTEX
  8
72OFGO3D01_ANY
 10
0.0
 20
0.0
 30
0.0
 70
   128
 62
  250
 71
  61
 72
  50
 73
  62
  0
VERTEX
  8
72OFGO3D01_ANY
 10
0.0
 20
0.0
 30
0.0
 70
   128
 62
  250
 71
 -62
 72
 -50
 73
 -61
  0
VERTEX
  8
72OFGO3D01_ANY
 10
0.0
 20
0.0
 30
0.0
 70
   128
 62
  250
 71
  50
 72
  51
 73
  62
  0
VERTEX
  8
72OFGO3D01_ANY
 10
0.0
 20
0.0
 30
0.0
 70
   128
 62
  250
 71
 -62
 72
 -51
 73
 -50
  0
VERTEX
  8
72OFGO3D01_ANY
 10
0.0
 20
0.0
 30
0.0
 70
   128
 62
  250
 71
  51
 72
  52
 73
  62
  0
VERTEX
  8
72OFGO3D01_ANY
 10
0.0
 20
0.0
 30
0.0
 70
   128
 62
  250
 71
 -62
 72
 -52
 73
 -51
  0
VERTEX
  8
72OFGO3D01_ANY
 10
0.0
 20
0.0
 30
0.0
 70
   128
 62
  250
 71
  54
 72
  63
 73
  53
  0
VERTEX
  8
72OFGO3D01_ANY
 10
0.0
 20
0.0
 30
0.0
 70
   128
 62
  250
 71
 -53
 72
 -63
 73
 -54
  0
VERTEX
  8
72OFGO3D01_ANY
 10
0.0
 20
0.0
 30
0.0
 70
   128
 62
  250
 71
  54
 72
  55
 73
  63
  0
VERTEX
  8
72OFGO3D01_ANY
 10
0.0
 20
0.0
 30
0.0
 70
   128
 62
  250
 71
 -63
 72
 -55
 73
 -54
  0
VERTEX
  8
72OFGO3D01_ANY
 10
0.0
 20
0.0
 30
0.0
 70
   128
 62
  250
 71
  55
 72
  56
 73
  63
  0
VERTEX
  8
72OFGO3D01_ANY
 10
0.0
 20
0.0
 30
0.0
 70
   128
 62
  250
 71
 -63
 72
 -56
 73
 -55
  0
VERTEX
  8
72OFGO3D01_ANY
 10
0.0
 20
0.0
 30
0.0
 70
   128
 62
  250
 71
  63
 72
  56
 73
  64
  0
VERTEX
  8
72OFGO3D01_ANY
 10
0.0
 20
0.0
 30
0.0
 70
   128
 62
  250
 71
 -64
 72
 -56
 73
 -63
  0
VERTEX
  8
72OFGO3D01_ANY
 10
0.0
 20
0.0
 30
0.0
 70
   128
 62
  250
 71
  56
 72
  45
 73
  64
  0
VERTEX
  8
72OFGO3D01_ANY
 10
0.0
 20
0.0
 30
0.0
 70
   128
 62
  250
 71
 -64
 72
 -45
 73
 -56
  0
VERTEX
  8
72OFGO3D01_ANY
 10
0.0
 20
0.0
 30
0.0
 70
   128
 62
  250
 71
  45
 72
  46
 73
  64
  0
VERTEX
  8
72OFGO3D01_ANY
 10
0.0
 20
0.0
 30
0.0
 70
   128
 62
  250
 71
 -64
 72
 -46
 73
 -45
  0
VERTEX
  8
72OFGO3D01_ANY
 10
0.0
 20
0.0
 30
0.0
 70
   128
 62
  250
 71
  63
 72
  62
 73
  53
  0
VERTEX
  8
72OFGO3D01_ANY
 10
0.0
 20
0.0
 30
0.0
 70
   128
 62
  250
 71
 -53
 72
 -62
 73
 -63
  0
VERTEX
  8
72OFGO3D01_ANY
 10
0.0
 20
0.0
 30
0.0
 70
   128
 62
  250
 71
  61
 72
  64
 73
  47
  0
VERTEX
  8
72OFGO3D01_ANY
 10
0.0
 20
0.0
 30
0.0
 70
   128
 62
  250
 71
 -47
 72
 -64
 73
 -61
  0
VERTEX
  8
72OFGO3D01_ANY
 10
0.0
 20
0.0
 30
0.0
 70
   128
 62
  250
 71
  47
 72
  64
 73
  46
  0
VERTEX
  8
72OFGO3D01_ANY
 10
0.0
 20
0.0
 30
0.0
 70
   128
 62
  250
 71
 -46
 72
 -64
 73
 -47
  0
VERTEX
  8
72OFGO3D01_ANY
 10
0.0
 20
0.0
 30
0.0
 70
   128
 62
  250
 71
  62
 72
  52
 73
  53
  0
VERTEX
  8
72OFGO3D01_ANY
 10
0.0
 20
0.0
 30
0.0
 70
   128
 62
  250
 71
 -53
 72
 -52
 73
 -62
  0
VERTEX
  8
72OFGO3D01_ANY
 10
0.0
 20
0.0
 30
0.0
 70
   128
 62
  250
 71
  60
 72
  61
 73
  59
  0
VERTEX
  8
72OFGO3D01_ANY
 10
0.0
 20
0.0
 30
0.0
 70
   128
 62
  250
 71
 -59
 72
 -61
 73
 -60
  0
VERTEX
  8
72OFGO3D01_ANY
 10
0.0
 20
0.0
 30
0.0
 70
   128
 62
  250
 71
  61
 72
  62
 73
  59
  0
VERTEX
  8
72OFGO3D01_ANY
 10
0.0
 20
0.0
 30
0.0
 70
   128
 62
  250
 71
 -59
 72
 -62
 73
 -61
  0
VERTEX
  8
72OFGO3D01_ANY
 10
0.0
 20
0.0
 30
0.0
 70
   128
 62
  250
 71
  58
 72
  64
 73
  60
  0
VERTEX
  8
72OFGO3D01_ANY
 10
0.0
 20
0.0
 30
0.0
 70
   128
 62
  250
 71
 -60
 72
 -64
 73
 -58
  0
VERTEX
  8
72OFGO3D01_ANY
 10
0.0
 20
0.0
 30
0.0
 70
   128
 62
  250
 71
  64
 72
  61
 73
  60
  0
VERTEX
  8
72OFGO3D01_ANY
 10
0.0
 20
0.0
 30
0.0
 70
   128
 62
  250
 71
 -60
 72
 -61
 73
 -64
  0
VERTEX
  8
72OFGO3D01_ANY
 10
0.0
 20
0.0
 30
0.0
 70
   128
 62
  250
 71
  57
 72
  63
 73
  58
  0
VERTEX
  8
72OFGO3D01_ANY
 10
0.0
 20
0.0
 30
0.0
 70
   128
 62
  250
 71
 -58
 72
 -63
 73
 -57
  0
VERTEX
  8
72OFGO3D01_ANY
 10
0.0
 20
0.0
 30
0.0
 70
   128
 62
  250
 71
  63
 72
  64
 73
  58
  0
VERTEX
  8
72OFGO3D01_ANY
 10
0.0
 20
0.0
 30
0.0
 70
   128
 62
  250
 71
 -58
 72
 -64
 73
 -63
  0
VERTEX
  8
72OFGO3D01_ANY
 10
0.0
 20
0.0
 30
0.0
 70
   128
 62
  250
 71
  59
 72
  62
 73
  57
  0
VERTEX
  8
72OFGO3D01_ANY
 10
0.0
 20
0.0
 30
0.0
 70
   128
 62
  250
 71
 -57
 72
 -62
 73
 -59
  0
VERTEX
  8
72OFGO3D01_ANY
 10
0.0
 20
0.0
 30
0.0
 70
   128
 62
  250
 71
  62
 72
  63
 73
  57
  0
VERTEX
  8
72OFGO3D01_ANY
 10
0.0
 20
0.0
 30
0.0
 70
   128
 62
  250
 71
 -57
 72
 -63
 73
 -62
  0
VERTEX
  8
72OFGO3D01_ANY
 10
0.0
 20
0.0
 30
0.0
 70
   128
 62
  250
 71
  65
 72
  66
 73
  67
  0
VERTEX
  8
72OFGO3D01_ANY
 10
0.0
 20
0.0
 30
0.0
 70
   128
 62
  250
 71
 -67
 72
 -66
 73
 -65
  0
VERTEX
  8
72OFGO3D01_ANY
 10
0.0
 20
0.0
 30
0.0
 70
   128
 62
  250
 71
  66
 72
  65
 73
  68
  0
VERTEX
  8
72OFGO3D01_ANY
 10
0.0
 20
0.0
 30
0.0
 70
   128
 62
  250
 71
 -68
 72
 -65
 73
 -66
  0
VERTEX
  8
72OFGO3D01_ANY
 10
0.0
 20
0.0
 30
0.0
 70
   128
 62
  250
 71
  69
 72
  70
 73
  71
  0
VERTEX
  8
72OFGO3D01_ANY
 10
0.0
 20
0.0
 30
0.0
 70
   128
 62
  250
 71
 -71
 72
 -70
 73
 -69
  0
VERTEX
  8
72OFGO3D01_ANY
 10
0.0
 20
0.0
 30
0.0
 70
   128
 62
  250
 71
  70
 72
  69
 73
  72
  0
VERTEX
  8
72OFGO3D01_ANY
 10
0.0
 20
0.0
 30
0.0
 70
   128
 62
  250
 71
 -72
 72
 -69
 73
 -70
  0
VERTEX
  8
72OFGO3D01_ANY
 10
0.0
 20
0.0
 30
0.0
 70
   128
 62
  250
 71
  73
 72
  74
 73
  75
  0
VERTEX
  8
72OFGO3D01_ANY
 10
0.0
 20
0.0
 30
0.0
 70
   128
 62
  250
 71
 -75
 72
 -74
 73
 -73
  0
VERTEX
  8
72OFGO3D01_ANY
 10
0.0
 20
0.0
 30
0.0
 70
   128
 62
  250
 71
  74
 72
  73
 73
  76
  0
VERTEX
  8
72OFGO3D01_ANY
 10
0.0
 20
0.0
 30
0.0
 70
   128
 62
  250
 71
 -76
 72
 -73
 73
 -74
  0
VERTEX
  8
72OFGO3D01_ANY
 10
0.0
 20
0.0
 30
0.0
 70
   128
 62
  250
 71
  77
 72
  78
 73
  79
  0
VERTEX
  8
72OFGO3D01_ANY
 10
0.0
 20
0.0
 30
0.0
 70
   128
 62
  250
 71
 -79
 72
 -78
 73
 -77
  0
VERTEX
  8
72OFGO3D01_ANY
 10
0.0
 20
0.0
 30
0.0
 70
   128
 62
  250
 71
  78
 72
  77
 73
  80
  0
VERTEX
  8
72OFGO3D01_ANY
 10
0.0
 20
0.0
 30
0.0
 70
   128
 62
  250
 71
 -80
 72
 -77
 73
 -78
  0
VERTEX
  8
72OFGO3D01_ANY
 10
0.0
 20
0.0
 30
0.0
 70
   128
 62
  250
 71
  81
 72
  82
 73
  83
  0
VERTEX
  8
72OFGO3D01_ANY
 10
0.0
 20
0.0
 30
0.0
 70
   128
 62
  250
 71
 -83
 72
 -82
 73
 -81
  0
VERTEX
  8
72OFGO3D01_ANY
 10
0.0
 20
0.0
 30
0.0
 70
   128
 62
  250
 71
  82
 72
  81
 73
  84
  0
VERTEX
  8
72OFGO3D01_ANY
 10
0.0
 20
0.0
 30
0.0
 70
   128
 62
  250
 71
 -84
 72
 -81
 73
 -82
  0
VERTEX
  8
72OFGO3D01_ANY
 10
0.0
 20
0.0
 30
0.0
 70
   128
 62
  250
 71
  85
 72
  86
 73
  87
  0
VERTEX
  8
72OFGO3D01_ANY
 10
0.0
 20
0.0
 30
0.0
 70
   128
 62
  250
 71
 -87
 72
 -86
 73
 -85
  0
VERTEX
  8
72OFGO3D01_ANY
 10
0.0
 20
0.0
 30
0.0
 70
   128
 62
  250
 71
  86
 72
  85
 73
  88
  0
VERTEX
  8
72OFGO3D01_ANY
 10
0.0
 20
0.0
 30
0.0
 70
   128
 62
  250
 71
 -88
 72
 -85
 73
 -86
  0
VERTEX
  8
72OFGO3D01_ANY
 10
0.0
 20
0.0
 30
0.0
 70
   128
 62
  250
 71
  86
 72
  84
 73
  87
  0
VERTEX
  8
72OFGO3D01_ANY
 10
0.0
 20
0.0
 30
0.0
 70
   128
 62
  250
 71
 -87
 72
 -84
 73
 -86
  0
VERTEX
  8
72OFGO3D01_ANY
 10
0.0
 20
0.0
 30
0.0
 70
   128
 62
  250
 71
  87
 72
  84
 73
  81
  0
VERTEX
  8
72OFGO3D01_ANY
 10
0.0
 20
0.0
 30
0.0
 70
   128
 62
  250
 71
 -81
 72
 -84
 73
 -87
  0
VERTEX
  8
72OFGO3D01_ANY
 10
0.0
 20
0.0
 30
0.0
 70
   128
 62
  250
 71
  82
 72
  80
 73
  83
  0
VERTEX
  8
72OFGO3D01_ANY
 10
0.0
 20
0.0
 30
0.0
 70
   128
 62
  250
 71
 -83
 72
 -80
 73
 -82
  0
VERTEX
  8
72OFGO3D01_ANY
 10
0.0
 20
0.0
 30
0.0
 70
   128
 62
  250
 71
  83
 72
  80
 73
  77
  0
VERTEX
  8
72OFGO3D01_ANY
 10
0.0
 20
0.0
 30
0.0
 70
   128
 62
  250
 71
 -77
 72
 -80
 73
 -83
  0
VERTEX
  8
72OFGO3D01_ANY
 10
0.0
 20
0.0
 30
0.0
 70
   128
 62
  250
 71
  78
 72
  76
 73
  79
  0
VERTEX
  8
72OFGO3D01_ANY
 10
0.0
 20
0.0
 30
0.0
 70
   128
 62
  250
 71
 -79
 72
 -76
 73
 -78
  0
VERTEX
  8
72OFGO3D01_ANY
 10
0.0
 20
0.0
 30
0.0
 70
   128
 62
  250
 71
  79
 72
  76
 73
  73
  0
VERTEX
  8
72OFGO3D01_ANY
 10
0.0
 20
0.0
 30
0.0
 70
   128
 62
  250
 71
 -73
 72
 -76
 73
 -79
  0
VERTEX
  8
72OFGO3D01_ANY
 10
0.0
 20
0.0
 30
0.0
 70
   128
 62
  250
 71
  74
 72
  72
 73
  75
  0
VERTEX
  8
72OFGO3D01_ANY
 10
0.0
 20
0.0
 30
0.0
 70
   128
 62
  250
 71
 -75
 72
 -72
 73
 -74
  0
VERTEX
  8
72OFGO3D01_ANY
 10
0.0
 20
0.0
 30
0.0
 70
   128
 62
  250
 71
  75
 72
  72
 73
  69
  0
VERTEX
  8
72OFGO3D01_ANY
 10
0.0
 20
0.0
 30
0.0
 70
   128
 62
  250
 71
 -69
 72
 -72
 73
 -75
  0
VERTEX
  8
72OFGO3D01_ANY
 10
0.0
 20
0.0
 30
0.0
 70
   128
 62
  250
 71
  70
 72
  68
 73
  71
  0
VERTEX
  8
72OFGO3D01_ANY
 10
0.0
 20
0.0
 30
0.0
 70
   128
 62
  250
 71
 -71
 72
 -68
 73
 -70
  0
VERTEX
  8
72OFGO3D01_ANY
 10
0.0
 20
0.0
 30
0.0
 70
   128
 62
  250
 71
  71
 72
  68
 73
  65
  0
VERTEX
  8
72OFGO3D01_ANY
 10
0.0
 20
0.0
 30
0.0
 70
   128
 62
  250
 71
 -65
 72
 -68
 73
 -71
  0
VERTEX
  8
72OFGO3D01_ANY
 10
0.0
 20
0.0
 30
0.0
 70
   128
 62
  250
 71
  66
 72
  88
 73
  67
  0
VERTEX
  8
72OFGO3D01_ANY
 10
0.0
 20
0.0
 30
0.0
 70
   128
 62
  250
 71
 -67
 72
 -88
 73
 -66
  0
VERTEX
  8
72OFGO3D01_ANY
 10
0.0
 20
0.0
 30
0.0
 70
   128
 62
  250
 71
  67
 72
  88
 73
  85
  0
VERTEX
  8
72OFGO3D01_ANY
 10
0.0
 20
0.0
 30
0.0
 70
   128
 62
  250
 71
 -85
 72
 -88
 73
 -67
  0
VERTEX
  8
72OFGO3D01_ANY
 10
0.0
 20
0.0
 30
0.0
 70
   128
 62
  250
 71
  89
 72
  90
 73
  91
  0
VERTEX
  8
72OFGO3D01_ANY
 10
0.0
 20
0.0
 30
0.0
 70
   128
 62
  250
 71
 -91
 72
 -90
 73
 -89
  0
VERTEX
  8
72OFGO3D01_ANY
 10
0.0
 20
0.0
 30
0.0
 70
   128
 62
  250
 71
  90
 72
  89
 73
  92
  0
VERTEX
  8
72OFGO3D01_ANY
 10
0.0
 20
0.0
 30
0.0
 70
   128
 62
  250
 71
 -92
 72
 -89
 73
 -90
  0
VERTEX
  8
72OFGO3D01_ANY
 10
0.0
 20
0.0
 30
0.0
 70
   128
 62
  250
 71
  93
 72
  94
 73
  95
  0
VERTEX
  8
72OFGO3D01_ANY
 10
0.0
 20
0.0
 30
0.0
 70
   128
 62
  250
 71
 -95
 72
 -94
 73
 -93
  0
VERTEX
  8
72OFGO3D01_ANY
 10
0.0
 20
0.0
 30
0.0
 70
   128
 62
  250
 71
  94
 72
  93
 73
  96
  0
VERTEX
  8
72OFGO3D01_ANY
 10
0.0
 20
0.0
 30
0.0
 70
   128
 62
  250
 71
 -96
 72
 -93
 73
 -94
  0
VERTEX
  8
72OFGO3D01_ANY
 10
0.0
 20
0.0
 30
0.0
 70
   128
 62
  250
 71
  97
 72
  98
 73
  99
  0
VERTEX
  8
72OFGO3D01_ANY
 10
0.0
 20
0.0
 30
0.0
 70
   128
 62
  250
 71
 -99
 72
 -98
 73
 -97
  0
VERTEX
  8
72OFGO3D01_ANY
 10
0.0
 20
0.0
 30
0.0
 70
   128
 62
  250
 71
  98
 72
  97
 73
  100
  0
VERTEX
  8
72OFGO3D01_ANY
 10
0.0
 20
0.0
 30
0.0
 70
   128
 62
  250
 71
 -100
 72
 -97
 73
 -98
  0
VERTEX
  8
72OFGO3D01_ANY
 10
0.0
 20
0.0
 30
0.0
 70
   128
 62
  250
 71
  101
 72
  102
 73
  103
  0
VERTEX
  8
72OFGO3D01_ANY
 10
0.0
 20
0.0
 30
0.0
 70
   128
 62
  250
 71
 -103
 72
 -102
 73
 -101
  0
VERTEX
  8
72OFGO3D01_ANY
 10
0.0
 20
0.0
 30
0.0
 70
   128
 62
  250
 71
  102
 72
  101
 73
  104
  0
VERTEX
  8
72OFGO3D01_ANY
 10
0.0
 20
0.0
 30
0.0
 70
   128
 62
  250
 71
 -104
 72
 -101
 73
 -102
  0
VERTEX
  8
72OFGO3D01_ANY
 10
0.0
 20
0.0
 30
0.0
 70
   128
 62
  250
 71
  105
 72
  106
 73
  107
  0
VERTEX
  8
72OFGO3D01_ANY
 10
0.0
 20
0.0
 30
0.0
 70
   128
 62
  250
 71
 -107
 72
 -106
 73
 -105
  0
VERTEX
  8
72OFGO3D01_ANY
 10
0.0
 20
0.0
 30
0.0
 70
   128
 62
  250
 71
  106
 72
  105
 73
  108
  0
VERTEX
  8
72OFGO3D01_ANY
 10
0.0
 20
0.0
 30
0.0
 70
   128
 62
  250
 71
 -108
 72
 -105
 73
 -106
  0
VERTEX
  8
72OFGO3D01_ANY
 10
0.0
 20
0.0
 30
0.0
 70
   128
 62
  250
 71
  109
 72
  110
 73
  111
  0
VERTEX
  8
72OFGO3D01_ANY
 10
0.0
 20
0.0
 30
0.0
 70
   128
 62
  250
 71
 -111
 72
 -110
 73
 -109
  0
VERTEX
  8
72OFGO3D01_ANY
 10
0.0
 20
0.0
 30
0.0
 70
   128
 62
  250
 71
  110
 72
  109
 73
  112
  0
VERTEX
  8
72OFGO3D01_ANY
 10
0.0
 20
0.0
 30
0.0
 70
   128
 62
  250
 71
 -112
 72
 -109
 73
 -110
  0
VERTEX
  8
72OFGO3D01_ANY
 10
0.0
 20
0.0
 30
0.0
 70
   128
 62
  250
 71
  110
 72
  108
 73
  111
  0
VERTEX
  8
72OFGO3D01_ANY
 10
0.0
 20
0.0
 30
0.0
 70
   128
 62
  250
 71
 -111
 72
 -108
 73
 -110
  0
VERTEX
  8
72OFGO3D01_ANY
 10
0.0
 20
0.0
 30
0.0
 70
   128
 62
  250
 71
  111
 72
  108
 73
  105
  0
VERTEX
  8
72OFGO3D01_ANY
 10
0.0
 20
0.0
 30
0.0
 70
   128
 62
  250
 71
 -105
 72
 -108
 73
 -111
  0
VERTEX
  8
72OFGO3D01_ANY
 10
0.0
 20
0.0
 30
0.0
 70
   128
 62
  250
 71
  106
 72
  104
 73
  107
  0
VERTEX
  8
72OFGO3D01_ANY
 10
0.0
 20
0.0
 30
0.0
 70
   128
 62
  250
 71
 -107
 72
 -104
 73
 -106
  0
VERTEX
  8
72OFGO3D01_ANY
 10
0.0
 20
0.0
 30
0.0
 70
   128
 62
  250
 71
  107
 72
  104
 73
  101
  0
VERTEX
  8
72OFGO3D01_ANY
 10
0.0
 20
0.0
 30
0.0
 70
   128
 62
  250
 71
 -101
 72
 -104
 73
 -107
  0
VERTEX
  8
72OFGO3D01_ANY
 10
0.0
 20
0.0
 30
0.0
 70
   128
 62
  250
 71
  102
 72
  100
 73
  103
  0
VERTEX
  8
72OFGO3D01_ANY
 10
0.0
 20
0.0
 30
0.0
 70
   128
 62
  250
 71
 -103
 72
 -100
 73
 -102
  0
VERTEX
  8
72OFGO3D01_ANY
 10
0.0
 20
0.0
 30
0.0
 70
   128
 62
  250
 71
  103
 72
  100
 73
  97
  0
VERTEX
  8
72OFGO3D01_ANY
 10
0.0
 20
0.0
 30
0.0
 70
   128
 62
  250
 71
 -97
 72
 -100
 73
 -103
  0
VERTEX
  8
72OFGO3D01_ANY
 10
0.0
 20
0.0
 30
0.0
 70
   128
 62
  250
 71
  98
 72
  96
 73
  99
  0
VERTEX
  8
72OFGO3D01_ANY
 10
0.0
 20
0.0
 30
0.0
 70
   128
 62
  250
 71
 -99
 72
 -96
 73
 -98
  0
VERTEX
  8
72OFGO3D01_ANY
 10
0.0
 20
0.0
 30
0.0
 70
   128
 62
  250
 71
  99
 72
  96
 73
  93
  0
VERTEX
  8
72OFGO3D01_ANY
 10
0.0
 20
0.0
 30
0.0
 70
   128
 62
  250
 71
 -93
 72
 -96
 73
 -99
  0
VERTEX
  8
72OFGO3D01_ANY
 10
0.0
 20
0.0
 30
0.0
 70
   128
 62
  250
 71
  94
 72
  92
 73
  95
  0
VERTEX
  8
72OFGO3D01_ANY
 10
0.0
 20
0.0
 30
0.0
 70
   128
 62
  250
 71
 -95
 72
 -92
 73
 -94
  0
VERTEX
  8
72OFGO3D01_ANY
 10
0.0
 20
0.0
 30
0.0
 70
   128
 62
  250
 71
  95
 72
  92
 73
  89
  0
VERTEX
  8
72OFGO3D01_ANY
 10
0.0
 20
0.0
 30
0.0
 70
   128
 62
  250
 71
 -89
 72
 -92
 73
 -95
  0
VERTEX
  8
72OFGO3D01_ANY
 10
0.0
 20
0.0
 30
0.0
 70
   128
 62
  250
 71
  90
 72
  112
 73
  91
  0
VERTEX
  8
72OFGO3D01_ANY
 10
0.0
 20
0.0
 30
0.0
 70
   128
 62
  250
 71
 -91
 72
 -112
 73
 -90
  0
VERTEX
  8
72OFGO3D01_ANY
 10
0.0
 20
0.0
 30
0.0
 70
   128
 62
  250
 71
  91
 72
  112
 73
  109
  0
VERTEX
  8
72OFGO3D01_ANY
 10
0.0
 20
0.0
 30
0.0
 70
   128
 62
  250
 71
 -109
 72
 -112
 73
 -91
  0
VERTEX
  8
72OFGO3D01_ANY
 10
0.0
 20
0.0
 30
0.0
 70
   128
 62
  250
 71
  86
 72
  88
 73
  91
  0
VERTEX
  8
72OFGO3D01_ANY
 10
0.0
 20
0.0
 30
0.0
 70
   128
 62
  250
 71
 -91
 72
 -88
 73
 -86
  0
VERTEX
  8
72OFGO3D01_ANY
 10
0.0
 20
0.0
 30
0.0
 70
   128
 62
  250
 71
  86
 72
  91
 73
  109
  0
VERTEX
  8
72OFGO3D01_ANY
 10
0.0
 20
0.0
 30
0.0
 70
   128
 62
  250
 71
 -109
 72
 -91
 73
 -86
  0
VERTEX
  8
72OFGO3D01_ANY
 10
0.0
 20
0.0
 30
0.0
 70
   128
 62
  250
 71
  86
 72
  109
 73
  84
  0
VERTEX
  8
72OFGO3D01_ANY
 10
0.0
 20
0.0
 30
0.0
 70
   128
 62
  250
 71
 -84
 72
 -109
 73
 -86
  0
VERTEX
  8
72OFGO3D01_ANY
 10
0.0
 20
0.0
 30
0.0
 70
   128
 62
  250
 71
  68
 72
  89
 73
  66
  0
VERTEX
  8
72OFGO3D01_ANY
 10
0.0
 20
0.0
 30
0.0
 70
   128
 62
  250
 71
 -66
 72
 -89
 73
 -68
  0
VERTEX
  8
72OFGO3D01_ANY
 10
0.0
 20
0.0
 30
0.0
 70
   128
 62
  250
 71
  89
 72
  68
 73
  95
  0
VERTEX
  8
72OFGO3D01_ANY
 10
0.0
 20
0.0
 30
0.0
 70
   128
 62
  250
 71
 -95
 72
 -68
 73
 -89
  0
VERTEX
  8
72OFGO3D01_ANY
 10
0.0
 20
0.0
 30
0.0
 70
   128
 62
  250
 71
  72
 72
  99
 73
  70
  0
VERTEX
  8
72OFGO3D01_ANY
 10
0.0
 20
0.0
 30
0.0
 70
   128
 62
  250
 71
 -70
 72
 -99
 73
 -72
  0
VERTEX
  8
72OFGO3D01_ANY
 10
0.0
 20
0.0
 30
0.0
 70
   128
 62
  250
 71
  99
 72
  72
 73
  97
  0
VERTEX
  8
72OFGO3D01_ANY
 10
0.0
 20
0.0
 30
0.0
 70
   128
 62
  250
 71
 -97
 72
 -72
 73
 -99
  0
VERTEX
  8
72OFGO3D01_ANY
 10
0.0
 20
0.0
 30
0.0
 70
   128
 62
  250
 71
  76
 72
  103
 73
  74
  0
VERTEX
  8
72OFGO3D01_ANY
 10
0.0
 20
0.0
 30
0.0
 70
   128
 62
  250
 71
 -74
 72
 -103
 73
 -76
  0
VERTEX
  8
72OFGO3D01_ANY
 10
0.0
 20
0.0
 30
0.0
 70
   128
 62
  250
 71
  103
 72
  76
 73
  101
  0
VERTEX
  8
72OFGO3D01_ANY
 10
0.0
 20
0.0
 30
0.0
 70
   128
 62
  250
 71
 -101
 72
 -76
 73
 -103
  0
VERTEX
  8
72OFGO3D01_ANY
 10
0.0
 20
0.0
 30
0.0
 70
   128
 62
  250
 71
  76
 72
  78
 73
  101
  0
VERTEX
  8
72OFGO3D01_ANY
 10
0.0
 20
0.0
 30
0.0
 70
   128
 62
  250
 71
 -101
 72
 -78
 73
 -76
  0
VERTEX
  8
72OFGO3D01_ANY
 10
0.0
 20
0.0
 30
0.0
 70
   128
 62
  250
 71
  82
 72
  107
 73
  80
  0
VERTEX
  8
72OFGO3D01_ANY
 10
0.0
 20
0.0
 30
0.0
 70
   128
 62
  250
 71
 -80
 72
 -107
 73
 -82
  0
VERTEX
  8
72OFGO3D01_ANY
 10
0.0
 20
0.0
 30
0.0
 70
   128
 62
  250
 71
  84
 72
  111
 73
  82
  0
VERTEX
  8
72OFGO3D01_ANY
 10
0.0
 20
0.0
 30
0.0
 70
   128
 62
  250
 71
 -82
 72
 -111
 73
 -84
  0
VERTEX
  8
72OFGO3D01_ANY
 10
0.0
 20
0.0
 30
0.0
 70
   128
 62
  250
 71
  111
 72
  84
 73
  109
  0
VERTEX
  8
72OFGO3D01_ANY
 10
0.0
 20
0.0
 30
0.0
 70
   128
 62
  250
 71
 -109
 72
 -84
 73
 -111
  0
VERTEX
  8
72OFGO3D01_ANY
 10
0.0
 20
0.0
 30
0.0
 70
   128
 62
  250
 71
  111
 72
  105
 73
  82
  0
VERTEX
  8
72OFGO3D01_ANY
 10
0.0
 20
0.0
 30
0.0
 70
   128
 62
  250
 71
 -82
 72
 -105
 73
 -111
  0
VERTEX
  8
72OFGO3D01_ANY
 10
0.0
 20
0.0
 30
0.0
 70
   128
 62
  250
 71
  105
 72
  107
 73
  82
  0
VERTEX
  8
72OFGO3D01_ANY
 10
0.0
 20
0.0
 30
0.0
 70
   128
 62
  250
 71
 -82
 72
 -107
 73
 -105
  0
VERTEX
  8
72OFGO3D01_ANY
 10
0.0
 20
0.0
 30
0.0
 70
   128
 62
  250
 71
  107
 72
  101
 73
  80
  0
VERTEX
  8
72OFGO3D01_ANY
 10
0.0
 20
0.0
 30
0.0
 70
   128
 62
  250
 71
 -80
 72
 -101
 73
 -107
  0
VERTEX
  8
72OFGO3D01_ANY
 10
0.0
 20
0.0
 30
0.0
 70
   128
 62
  250
 71
  103
 72
  97
 73
  74
  0
VERTEX
  8
72OFGO3D01_ANY
 10
0.0
 20
0.0
 30
0.0
 70
   128
 62
  250
 71
 -74
 72
 -97
 73
 -103
  0
VERTEX
  8
72OFGO3D01_ANY
 10
0.0
 20
0.0
 30
0.0
 70
   128
 62
  250
 71
  74
 72
  97
 73
  72
  0
VERTEX
  8
72OFGO3D01_ANY
 10
0.0
 20
0.0
 30
0.0
 70
   128
 62
  250
 71
 -72
 72
 -97
 73
 -74
  0
VERTEX
  8
72OFGO3D01_ANY
 10
0.0
 20
0.0
 30
0.0
 70
   128
 62
  250
 71
  99
 72
  93
 73
  70
  0
VERTEX
  8
72OFGO3D01_ANY
 10
0.0
 20
0.0
 30
0.0
 70
   128
 62
  250
 71
 -70
 72
 -93
 73
 -99
  0
VERTEX
  8
72OFGO3D01_ANY
 10
0.0
 20
0.0
 30
0.0
 70
   128
 62
  250
 71
  93
 72
  95
 73
  70
  0
VERTEX
  8
72OFGO3D01_ANY
 10
0.0
 20
0.0
 30
0.0
 70
   128
 62
  250
 71
 -70
 72
 -95
 73
 -93
  0
VERTEX
  8
72OFGO3D01_ANY
 10
0.0
 20
0.0
 30
0.0
 70
   128
 62
  250
 71
  70
 72
  95
 73
  68
  0
VERTEX
  8
72OFGO3D01_ANY
 10
0.0
 20
0.0
 30
0.0
 70
   128
 62
  250
 71
 -68
 72
 -95
 73
 -70
  0
VERTEX
  8
72OFGO3D01_ANY
 10
0.0
 20
0.0
 30
0.0
 70
   128
 62
  250
 71
  89
 72
  91
 73
  66
  0
VERTEX
  8
72OFGO3D01_ANY
 10
0.0
 20
0.0
 30
0.0
 70
   128
 62
  250
 71
 -66
 72
 -91
 73
 -89
  0
VERTEX
  8
72OFGO3D01_ANY
 10
0.0
 20
0.0
 30
0.0
 70
   128
 62
  250
 71
  91
 72
  88
 73
  66
  0
VERTEX
  8
72OFGO3D01_ANY
 10
0.0
 20
0.0
 30
0.0
 70
   128
 62
  250
 71
 -66
 72
 -88
 73
 -91
  0
VERTEX
  8
72OFGO3D01_ANY
 10
0.0
 20
0.0
 30
0.0
 70
   128
 62
  250
 71
  80
 72
  101
 73
  78
  0
VERTEX
  8
72OFGO3D01_ANY
 10
0.0
 20
0.0
 30
0.0
 70
   128
 62
  250
 71
 -78
 72
 -101
 73
 -80
  0
VERTEX
  8
72OFGO3D01_ANY
 10
0.0
 20
0.0
 30
0.0
 70
   128
 62
  250
 71
  90
 72
  98
 73
  112
  0
VERTEX
  8
72OFGO3D01_ANY
 10
0.0
 20
0.0
 30
0.0
 70
   128
 62
  250
 71
 -112
 72
 -98
 73
 -90
  0
VERTEX
  8
72OFGO3D01_ANY
 10
0.0
 20
0.0
 30
0.0
 70
   128
 62
  250
 71
  98
 72
  90
 73
  96
  0
VERTEX
  8
72OFGO3D01_ANY
 10
0.0
 20
0.0
 30
0.0
 70
   128
 62
  250
 71
 -96
 72
 -90
 73
 -98
  0
VERTEX
  8
72OFGO3D01_ANY
 10
0.0
 20
0.0
 30
0.0
 70
   128
 62
  250
 71
  94
 72
  96
 73
  92
  0
VERTEX
  8
72OFGO3D01_ANY
 10
0.0
 20
0.0
 30
0.0
 70
   128
 62
  250
 71
 -92
 72
 -96
 73
 -94
  0
VERTEX
  8
72OFGO3D01_ANY
 10
0.0
 20
0.0
 30
0.0
 70
   128
 62
  250
 71
  92
 72
  96
 73
  90
  0
VERTEX
  8
72OFGO3D01_ANY
 10
0.0
 20
0.0
 30
0.0
 70
   128
 62
  250
 71
 -90
 72
 -96
 73
 -92
  0
VERTEX
  8
72OFGO3D01_ANY
 10
0.0
 20
0.0
 30
0.0
 70
   128
 62
  250
 71
  98
 72
  100
 73
  112
  0
VERTEX
  8
72OFGO3D01_ANY
 10
0.0
 20
0.0
 30
0.0
 70
   128
 62
  250
 71
 -112
 72
 -100
 73
 -98
  0
VERTEX
  8
72OFGO3D01_ANY
 10
0.0
 20
0.0
 30
0.0
 70
   128
 62
  250
 71
  112
 72
  100
 73
  110
  0
VERTEX
  8
72OFGO3D01_ANY
 10
0.0
 20
0.0
 30
0.0
 70
   128
 62
  250
 71
 -110
 72
 -100
 73
 -112
  0
VERTEX
  8
72OFGO3D01_ANY
 10
0.0
 20
0.0
 30
0.0
 70
   128
 62
  250
 71
  104
 72
  108
 73
  102
  0
VERTEX
  8
72OFGO3D01_ANY
 10
0.0
 20
0.0
 30
0.0
 70
   128
 62
  250
 71
 -102
 72
 -108
 73
 -104
  0
VERTEX
  8
72OFGO3D01_ANY
 10
0.0
 20
0.0
 30
0.0
 70
   128
 62
  250
 71
  104
 72
  106
 73
  108
  0
VERTEX
  8
72OFGO3D01_ANY
 10
0.0
 20
0.0
 30
0.0
 70
   128
 62
  250
 71
 -108
 72
 -106
 73
 -104
  0
VERTEX
  8
72OFGO3D01_ANY
 10
0.0
 20
0.0
 30
0.0
 70
   128
 62
  250
 71
  108
 72
  110
 73
  102
  0
VERTEX
  8
72OFGO3D01_ANY
 10
0.0
 20
0.0
 30
0.0
 70
   128
 62
  250
 71
 -102
 72
 -110
 73
 -108
  0
VERTEX
  8
72OFGO3D01_ANY
 10
0.0
 20
0.0
 30
0.0
 70
   128
 62
  250
 71
  102
 72
  110
 73
  100
  0
VERTEX
  8
72OFGO3D01_ANY
 10
0.0
 20
0.0
 30
0.0
 70
   128
 62
  250
 71
 -100
 72
 -110
 73
 -102
  0
VERTEX
  8
72OFGO3D01_ANY
 10
0.0
 20
0.0
 30
0.0
 70
   128
 62
  250
 71
  113
 72
  114
 73
  115
  0
VERTEX
  8
72OFGO3D01_ANY
 10
0.0
 20
0.0
 30
0.0
 70
   128
 62
  250
 71
 -115
 72
 -114
 73
 -113
  0
VERTEX
  8
72OFGO3D01_ANY
 10
0.0
 20
0.0
 30
0.0
 70
   128
 62
  250
 71
  114
 72
  113
 73
  116
  0
VERTEX
  8
72OFGO3D01_ANY
 10
0.0
 20
0.0
 30
0.0
 70
   128
 62
  250
 71
 -116
 72
 -113
 73
 -114
  0
VERTEX
  8
72OFGO3D01_ANY
 10
0.0
 20
0.0
 30
0.0
 70
   128
 62
  250
 71
  117
 72
  118
 73
  119
  0
VERTEX
  8
72OFGO3D01_ANY
 10
0.0
 20
0.0
 30
0.0
 70
   128
 62
  250
 71
 -119
 72
 -118
 73
 -117
  0
VERTEX
  8
72OFGO3D01_ANY
 10
0.0
 20
0.0
 30
0.0
 70
   128
 62
  250
 71
  118
 72
  117
 73
  120
  0
VERTEX
  8
72OFGO3D01_ANY
 10
0.0
 20
0.0
 30
0.0
 70
   128
 62
  250
 71
 -120
 72
 -117
 73
 -118
  0
VERTEX
  8
72OFGO3D01_ANY
 10
0.0
 20
0.0
 30
0.0
 70
   128
 62
  250
 71
  121
 72
  122
 73
  123
  0
VERTEX
  8
72OFGO3D01_ANY
 10
0.0
 20
0.0
 30
0.0
 70
   128
 62
  250
 71
 -123
 72
 -122
 73
 -121
  0
VERTEX
  8
72OFGO3D01_ANY
 10
0.0
 20
0.0
 30
0.0
 70
   128
 62
  250
 71
  122
 72
  121
 73
  124
  0
VERTEX
  8
72OFGO3D01_ANY
 10
0.0
 20
0.0
 30
0.0
 70
   128
 62
  250
 71
 -124
 72
 -121
 73
 -122
  0
VERTEX
  8
72OFGO3D01_ANY
 10
0.0
 20
0.0
 30
0.0
 70
   128
 62
  250
 71
  125
 72
  126
 73
  127
  0
VERTEX
  8
72OFGO3D01_ANY
 10
0.0
 20
0.0
 30
0.0
 70
   128
 62
  250
 71
 -127
 72
 -126
 73
 -125
  0
VERTEX
  8
72OFGO3D01_ANY
 10
0.0
 20
0.0
 30
0.0
 70
   128
 62
  250
 71
  126
 72
  125
 73
  128
  0
VERTEX
  8
72OFGO3D01_ANY
 10
0.0
 20
0.0
 30
0.0
 70
   128
 62
  250
 71
 -128
 72
 -125
 73
 -126
  0
VERTEX
  8
72OFGO3D01_ANY
 10
0.0
 20
0.0
 30
0.0
 70
   128
 62
  250
 71
  129
 72
  130
 73
  131
  0
VERTEX
  8
72OFGO3D01_ANY
 10
0.0
 20
0.0
 30
0.0
 70
   128
 62
  250
 71
 -131
 72
 -130
 73
 -129
  0
VERTEX
  8
72OFGO3D01_ANY
 10
0.0
 20
0.0
 30
0.0
 70
   128
 62
  250
 71
  130
 72
  129
 73
  132
  0
VERTEX
  8
72OFGO3D01_ANY
 10
0.0
 20
0.0
 30
0.0
 70
   128
 62
  250
 71
 -132
 72
 -129
 73
 -130
  0
VERTEX
  8
72OFGO3D01_ANY
 10
0.0
 20
0.0
 30
0.0
 70
   128
 62
  250
 71
  133
 72
  134
 73
  135
  0
VERTEX
  8
72OFGO3D01_ANY
 10
0.0
 20
0.0
 30
0.0
 70
   128
 62
  250
 71
 -135
 72
 -134
 73
 -133
  0
VERTEX
  8
72OFGO3D01_ANY
 10
0.0
 20
0.0
 30
0.0
 70
   128
 62
  250
 71
  134
 72
  133
 73
  136
  0
VERTEX
  8
72OFGO3D01_ANY
 10
0.0
 20
0.0
 30
0.0
 70
   128
 62
  250
 71
 -136
 72
 -133
 73
 -134
  0
VERTEX
  8
72OFGO3D01_ANY
 10
0.0
 20
0.0
 30
0.0
 70
   128
 62
  250
 71
  134
 72
  132
 73
  135
  0
VERTEX
  8
72OFGO3D01_ANY
 10
0.0
 20
0.0
 30
0.0
 70
   128
 62
  250
 71
 -135
 72
 -132
 73
 -134
  0
VERTEX
  8
72OFGO3D01_ANY
 10
0.0
 20
0.0
 30
0.0
 70
   128
 62
  250
 71
  135
 72
  132
 73
  129
  0
VERTEX
  8
72OFGO3D01_ANY
 10
0.0
 20
0.0
 30
0.0
 70
   128
 62
  250
 71
 -129
 72
 -132
 73
 -135
  0
VERTEX
  8
72OFGO3D01_ANY
 10
0.0
 20
0.0
 30
0.0
 70
   128
 62
  250
 71
  130
 72
  128
 73
  131
  0
VERTEX
  8
72OFGO3D01_ANY
 10
0.0
 20
0.0
 30
0.0
 70
   128
 62
  250
 71
 -131
 72
 -128
 73
 -130
  0
VERTEX
  8
72OFGO3D01_ANY
 10
0.0
 20
0.0
 30
0.0
 70
   128
 62
  250
 71
  131
 72
  128
 73
  125
  0
VERTEX
  8
72OFGO3D01_ANY
 10
0.0
 20
0.0
 30
0.0
 70
   128
 62
  250
 71
 -125
 72
 -128
 73
 -131
  0
VERTEX
  8
72OFGO3D01_ANY
 10
0.0
 20
0.0
 30
0.0
 70
   128
 62
  250
 71
  126
 72
  124
 73
  127
  0
VERTEX
  8
72OFGO3D01_ANY
 10
0.0
 20
0.0
 30
0.0
 70
   128
 62
  250
 71
 -127
 72
 -124
 73
 -126
  0
VERTEX
  8
72OFGO3D01_ANY
 10
0.0
 20
0.0
 30
0.0
 70
   128
 62
  250
 71
  127
 72
  124
 73
  121
  0
VERTEX
  8
72OFGO3D01_ANY
 10
0.0
 20
0.0
 30
0.0
 70
   128
 62
  250
 71
 -121
 72
 -124
 73
 -127
  0
VERTEX
  8
72OFGO3D01_ANY
 10
0.0
 20
0.0
 30
0.0
 70
   128
 62
  250
 71
  122
 72
  120
 73
  123
  0
VERTEX
  8
72OFGO3D01_ANY
 10
0.0
 20
0.0
 30
0.0
 70
   128
 62
  250
 71
 -123
 72
 -120
 73
 -122
  0
VERTEX
  8
72OFGO3D01_ANY
 10
0.0
 20
0.0
 30
0.0
 70
   128
 62
  250
 71
  123
 72
  120
 73
  117
  0
VERTEX
  8
72OFGO3D01_ANY
 10
0.0
 20
0.0
 30
0.0
 70
   128
 62
  250
 71
 -117
 72
 -120
 73
 -123
  0
VERTEX
  8
72OFGO3D01_ANY
 10
0.0
 20
0.0
 30
0.0
 70
   128
 62
  250
 71
  118
 72
  116
 73
  119
  0
VERTEX
  8
72OFGO3D01_ANY
 10
0.0
 20
0.0
 30
0.0
 70
   128
 62
  250
 71
 -119
 72
 -116
 73
 -118
  0
VERTEX
  8
72OFGO3D01_ANY
 10
0.0
 20
0.0
 30
0.0
 70
   128
 62
  250
 71
  119
 72
  116
 73
  113
  0
VERTEX
  8
72OFGO3D01_ANY
 10
0.0
 20
0.0
 30
0.0
 70
   128
 62
  250
 71
 -113
 72
 -116
 73
 -119
  0
VERTEX
  8
72OFGO3D01_ANY
 10
0.0
 20
0.0
 30
0.0
 70
   128
 62
  250
 71
  114
 72
  136
 73
  115
  0
VERTEX
  8
72OFGO3D01_ANY
 10
0.0
 20
0.0
 30
0.0
 70
   128
 62
  250
 71
 -115
 72
 -136
 73
 -114
  0
VERTEX
  8
72OFGO3D01_ANY
 10
0.0
 20
0.0
 30
0.0
 70
   128
 62
  250
 71
  115
 72
  136
 73
  133
  0
VERTEX
  8
72OFGO3D01_ANY
 10
0.0
 20
0.0
 30
0.0
 70
   128
 62
  250
 71
 -133
 72
 -136
 73
 -115
  0
VERTEX
  8
72OFGO3D01_ANY
 10
0.0
 20
0.0
 30
0.0
 70
   128
 62
  250
 71
  133
 72
  125
 73
  115
  0
VERTEX
  8
72OFGO3D01_ANY
 10
0.0
 20
0.0
 30
0.0
 70
   128
 62
  250
 71
 -115
 72
 -125
 73
 -133
  0
VERTEX
  8
72OFGO3D01_ANY
 10
0.0
 20
0.0
 30
0.0
 70
   128
 62
  250
 71
  125
 72
  133
 73
  131
  0
VERTEX
  8
72OFGO3D01_ANY
 10
0.0
 20
0.0
 30
0.0
 70
   128
 62
  250
 71
 -131
 72
 -133
 73
 -125
  0
VERTEX
  8
72OFGO3D01_ANY
 10
0.0
 20
0.0
 30
0.0
 70
   128
 62
  250
 71
  129
 72
  131
 73
  135
  0
VERTEX
  8
72OFGO3D01_ANY
 10
0.0
 20
0.0
 30
0.0
 70
   128
 62
  250
 71
 -135
 72
 -131
 73
 -129
  0
VERTEX
  8
72OFGO3D01_ANY
 10
0.0
 20
0.0
 30
0.0
 70
   128
 62
  250
 71
  135
 72
  131
 73
  133
  0
VERTEX
  8
72OFGO3D01_ANY
 10
0.0
 20
0.0
 30
0.0
 70
   128
 62
  250
 71
 -133
 72
 -131
 73
 -135
  0
VERTEX
  8
72OFGO3D01_ANY
 10
0.0
 20
0.0
 30
0.0
 70
   128
 62
  250
 71
  125
 72
  127
 73
  115
  0
VERTEX
  8
72OFGO3D01_ANY
 10
0.0
 20
0.0
 30
0.0
 70
   128
 62
  250
 71
 -115
 72
 -127
 73
 -125
  0
VERTEX
  8
72OFGO3D01_ANY
 10
0.0
 20
0.0
 30
0.0
 70
   128
 62
  250
 71
  115
 72
  127
 73
  113
  0
VERTEX
  8
72OFGO3D01_ANY
 10
0.0
 20
0.0
 30
0.0
 70
   128
 62
  250
 71
 -113
 72
 -127
 73
 -115
  0
VERTEX
  8
72OFGO3D01_ANY
 10
0.0
 20
0.0
 30
0.0
 70
   128
 62
  250
 71
  123
 72
  119
 73
  121
  0
VERTEX
  8
72OFGO3D01_ANY
 10
0.0
 20
0.0
 30
0.0
 70
   128
 62
  250
 71
 -121
 72
 -119
 73
 -123
  0
VERTEX
  8
72OFGO3D01_ANY
 10
0.0
 20
0.0
 30
0.0
 70
   128
 62
  250
 71
  123
 72
  117
 73
  119
  0
VERTEX
  8
72OFGO3D01_ANY
 10
0.0
 20
0.0
 30
0.0
 70
   128
 62
  250
 71
 -119
 72
 -117
 73
 -123
  0
VERTEX
  8
72OFGO3D01_ANY
 10
0.0
 20
0.0
 30
0.0
 70
   128
 62
  250
 71
  119
 72
  113
 73
  121
  0
VERTEX
  8
72OFGO3D01_ANY
 10
0.0
 20
0.0
 30
0.0
 70
   128
 62
  250
 71
 -121
 72
 -113
 73
 -119
  0
VERTEX
  8
72OFGO3D01_ANY
 10
0.0
 20
0.0
 30
0.0
 70
   128
 62
  250
 71
  121
 72
  113
 73
  127
  0
VERTEX
  8
72OFGO3D01_ANY
 10
0.0
 20
0.0
 30
0.0
 70
   128
 62
  250
 71
 -127
 72
 -113
 73
 -121
  0
VERTEX
  8
72OFGO3D01_ANY
 10
0.0
 20
0.0
 30
0.0
 70
   128
 62
  250
 71
  85
 72
  134
 73
  67
  0
VERTEX
  8
72OFGO3D01_ANY
 10
0.0
 20
0.0
 30
0.0
 70
   128
 62
  250
 71
 -67
 72
 -134
 73
 -85
  0
VERTEX
  8
72OFGO3D01_ANY
 10
0.0
 20
0.0
 30
0.0
 70
   128
 62
  250
 71
  85
 72
  87
 73
  134
  0
VERTEX
  8
72OFGO3D01_ANY
 10
0.0
 20
0.0
 30
0.0
 70
   128
 62
  250
 71
 -134
 72
 -87
 73
 -85
  0
VERTEX
  8
72OFGO3D01_ANY
 10
0.0
 20
0.0
 30
0.0
 70
   128
 62
  250
 71
  134
 72
  87
 73
  132
  0
VERTEX
  8
72OFGO3D01_ANY
 10
0.0
 20
0.0
 30
0.0
 70
   128
 62
  250
 71
 -132
 72
 -87
 73
 -134
  0
VERTEX
  8
72OFGO3D01_ANY
 10
0.0
 20
0.0
 30
0.0
 70
   128
 62
  250
 71
  83
 72
  128
 73
  81
  0
VERTEX
  8
72OFGO3D01_ANY
 10
0.0
 20
0.0
 30
0.0
 70
   128
 62
  250
 71
 -81
 72
 -128
 73
 -83
  0
VERTEX
  8
72OFGO3D01_ANY
 10
0.0
 20
0.0
 30
0.0
 70
   128
 62
  250
 71
  128
 72
  83
 73
  126
  0
VERTEX
  8
72OFGO3D01_ANY
 10
0.0
 20
0.0
 30
0.0
 70
   128
 62
  250
 71
 -126
 72
 -83
 73
 -128
  0
VERTEX
  8
72OFGO3D01_ANY
 10
0.0
 20
0.0
 30
0.0
 70
   128
 62
  250
 71
  79
 72
  124
 73
  77
  0
VERTEX
  8
72OFGO3D01_ANY
 10
0.0
 20
0.0
 30
0.0
 70
   128
 62
  250
 71
 -77
 72
 -124
 73
 -79
  0
VERTEX
  8
72OFGO3D01_ANY
 10
0.0
 20
0.0
 30
0.0
 70
   128
 62
  250
 71
  79
 72
  73
 73
  124
  0
VERTEX
  8
72OFGO3D01_ANY
 10
0.0
 20
0.0
 30
0.0
 70
   128
 62
  250
 71
 -124
 72
 -73
 73
 -79
  0
VERTEX
  8
72OFGO3D01_ANY
 10
0.0
 20
0.0
 30
0.0
 70
   128
 62
  250
 71
  124
 72
  73
 73
  122
  0
VERTEX
  8
72OFGO3D01_ANY
 10
0.0
 20
0.0
 30
0.0
 70
   128
 62
  250
 71
 -122
 72
 -73
 73
 -124
  0
VERTEX
  8
72OFGO3D01_ANY
 10
0.0
 20
0.0
 30
0.0
 70
   128
 62
  250
 71
  69
 72
  120
 73
  75
  0
VERTEX
  8
72OFGO3D01_ANY
 10
0.0
 20
0.0
 30
0.0
 70
   128
 62
  250
 71
 -75
 72
 -120
 73
 -69
  0
VERTEX
  8
72OFGO3D01_ANY
 10
0.0
 20
0.0
 30
0.0
 70
   128
 62
  250
 71
  71
 72
  116
 73
  69
  0
VERTEX
  8
72OFGO3D01_ANY
 10
0.0
 20
0.0
 30
0.0
 70
   128
 62
  250
 71
 -69
 72
 -116
 73
 -71
  0
VERTEX
  8
72OFGO3D01_ANY
 10
0.0
 20
0.0
 30
0.0
 70
   128
 62
  250
 71
  116
 72
  71
 73
  114
  0
VERTEX
  8
72OFGO3D01_ANY
 10
0.0
 20
0.0
 30
0.0
 70
   128
 62
  250
 71
 -114
 72
 -71
 73
 -116
  0
VERTEX
  8
72OFGO3D01_ANY
 10
0.0
 20
0.0
 30
0.0
 70
   128
 62
  250
 71
  67
 72
  136
 73
  65
  0
VERTEX
  8
72OFGO3D01_ANY
 10
0.0
 20
0.0
 30
0.0
 70
   128
 62
  250
 71
 -65
 72
 -136
 73
 -67
  0
VERTEX
  8
72OFGO3D01_ANY
 10
0.0
 20
0.0
 30
0.0
 70
   128
 62
  250
 71
  136
 72
  114
 73
  65
  0
VERTEX
  8
72OFGO3D01_ANY
 10
0.0
 20
0.0
 30
0.0
 70
   128
 62
  250
 71
 -65
 72
 -114
 73
 -136
  0
VERTEX
  8
72OFGO3D01_ANY
 10
0.0
 20
0.0
 30
0.0
 70
   128
 62
  250
 71
  65
 72
  114
 73
  71
  0
VERTEX
  8
72OFGO3D01_ANY
 10
0.0
 20
0.0
 30
0.0
 70
   128
 62
  250
 71
 -71
 72
 -114
 73
 -65
  0
VERTEX
  8
72OFGO3D01_ANY
 10
0.0
 20
0.0
 30
0.0
 70
   128
 62
  250
 71
  116
 72
  118
 73
  69
  0
VERTEX
  8
72OFGO3D01_ANY
 10
0.0
 20
0.0
 30
0.0
 70
   128
 62
  250
 71
 -69
 72
 -118
 73
 -116
  0
VERTEX
  8
72OFGO3D01_ANY
 10
0.0
 20
0.0
 30
0.0
 70
   128
 62
  250
 71
  118
 72
  120
 73
  69
  0
VERTEX
  8
72OFGO3D01_ANY
 10
0.0
 20
0.0
 30
0.0
 70
   128
 62
  250
 71
 -69
 72
 -120
 73
 -118
  0
VERTEX
  8
72OFGO3D01_ANY
 10
0.0
 20
0.0
 30
0.0
 70
   128
 62
  250
 71
  120
 72
  122
 73
  75
  0
VERTEX
  8
72OFGO3D01_ANY
 10
0.0
 20
0.0
 30
0.0
 70
   128
 62
  250
 71
 -75
 72
 -122
 73
 -120
  0
VERTEX
  8
72OFGO3D01_ANY
 10
0.0
 20
0.0
 30
0.0
 70
   128
 62
  250
 71
  75
 72
  122
 73
  73
  0
VERTEX
  8
72OFGO3D01_ANY
 10
0.0
 20
0.0
 30
0.0
 70
   128
 62
  250
 71
 -73
 72
 -122
 73
 -75
  0
VERTEX
  8
72OFGO3D01_ANY
 10
0.0
 20
0.0
 30
0.0
 70
   128
 62
  250
 71
  124
 72
  126
 73
  77
  0
VERTEX
  8
72OFGO3D01_ANY
 10
0.0
 20
0.0
 30
0.0
 70
   128
 62
  250
 71
 -77
 72
 -126
 73
 -124
  0
VERTEX
  8
72OFGO3D01_ANY
 10
0.0
 20
0.0
 30
0.0
 70
   128
 62
  250
 71
  77
 72
  126
 73
  83
  0
VERTEX
  8
72OFGO3D01_ANY
 10
0.0
 20
0.0
 30
0.0
 70
   128
 62
  250
 71
 -83
 72
 -126
 73
 -77
  0
VERTEX
  8
72OFGO3D01_ANY
 10
0.0
 20
0.0
 30
0.0
 70
   128
 62
  250
 71
  128
 72
  130
 73
  81
  0
VERTEX
  8
72OFGO3D01_ANY
 10
0.0
 20
0.0
 30
0.0
 70
   128
 62
  250
 71
 -81
 72
 -130
 73
 -128
  0
VERTEX
  8
72OFGO3D01_ANY
 10
0.0
 20
0.0
 30
0.0
 70
   128
 62
  250
 71
  130
 72
  132
 73
  81
  0
VERTEX
  8
72OFGO3D01_ANY
 10
0.0
 20
0.0
 30
0.0
 70
   128
 62
  250
 71
 -81
 72
 -132
 73
 -130
  0
VERTEX
  8
72OFGO3D01_ANY
 10
0.0
 20
0.0
 30
0.0
 70
   128
 62
  250
 71
  81
 72
  132
 73
  87
  0
VERTEX
  8
72OFGO3D01_ANY
 10
0.0
 20
0.0
 30
0.0
 70
   128
 62
  250
 71
 -87
 72
 -132
 73
 -81
  0
VERTEX
  8
72OFGO3D01_ANY
 10
0.0
 20
0.0
 30
0.0
 70
   128
 62
  250
 71
  134
 72
  136
 73
  67
  0
VERTEX
  8
72OFGO3D01_ANY
 10
0.0
 20
0.0
 30
0.0
 70
   128
 62
  250
 71
 -67
 72
 -136
 73
 -134
  0
SEQEND
  0
ENDBLK
  8
0
  0
BLOCK
  8
0
  2
OB__000009
 70
    64
 10
0.0
 20
0.0
 30
0.0
  3
OB__000009
  0
INSERT
  8
72OFGO3D01_ANY
  2
OB__000008
 10
0
 20
0
 30
0
 41
1
 42
1
 43
1
  0
ENDBLK
  8
0
  0
BLOCK
  8
0
  2
OB__000010
 70
    64
 10
0.0
 20
0.0
 30
0.0
  3
OB__000010
  0
INSERT
  8
72OFGO3D01_ANY
  2
OB__000008
 10
0.43
 20
0
 30
0
 41
-1
 42
1
 43
1
  0
ENDBLK
  8
0
  0
BLOCK
  8
0
  2
OB__000011
 70
    64
 10
0.0
 20
0.0
 30
0.0
  3
OB__000011
  0
INSERT
  8
72OFGO3D01_ANY
  2
OB__000008
 10
0.43
 20
-0.6
 30
0
 41
-1
 42
-1
 43
1
  0
ENDBLK
  8
0
  0
BLOCK
  8
0
  2
OB__000012
 70
    64
 10
0.0
 20
0.0
 30
0.0
  3
OB__000012
  0
INSERT
  8
72OFGO3D01_ANY
  2
OB__000008
 10
0
 20
-0.6
 30
0
 41
1
 42
-1
 43
1
  0
ENDBLK
  8
0
  0
BLOCK
  8
0
  2
OB__000013
 70
    64
 10
0.0
 20
0.0
 30
0.0
  3
OB__000013
  0
POLYLINE
  8
72OFGO3D01_ANY
 66
     1
 70
    64
 71
8
 72
8
 10
0.0
 20
0.0
 30
0.0
  0
VERTEX
  8
72OFGO3D01_ANY
 10
0
 20
0
 30
0
 70
    192
  0
VERTEX
  8
72OFGO3D01_ANY
 10
0
 20
-1
 30
0
 70
    192
  0
VERTEX
  8
72OFGO3D01_ANY
 10
1
 20
-1
 30
0
 70
    192
  0
VERTEX
  8
72OFGO3D01_ANY
 10
1
 20
0
 30
0
 70
    192
  0
VERTEX
  8
72OFGO3D01_ANY
 10
0
 20
0
 30
-1
 70
    192
  0
VERTEX
  8
72OFGO3D01_ANY
 10
0
 20
-1
 30
-1
 70
    192
  0
VERTEX
  8
72OFGO3D01_ANY
 10
1
 20
-1
 30
-1
 70
    192
  0
VERTEX
  8
72OFGO3D01_ANY
 10
1
 20
0
 30
-1
 70
    192
  0
VERTEX
  8
72OFGO3D01_ANY
 10
0.0
 20
0.0
 30
0.0
 70
   128
 62
  31
 71
  1
 72
  2
 73
 -3
  0
VERTEX
  8
72OFGO3D01_ANY
 10
0.0
 20
0.0
 30
0.0
 70
   128
 62
  31
 71
 -1
 72
  3
 73
  4
  0
VERTEX
  8
72OFGO3D01_ANY
 10
0.0
 20
0.0
 30
0.0
 70
   128
 62
  31
 71
 -4
 72
 -3
 73
 -2
  0
VERTEX
  8
72OFGO3D01_ANY
 10
0.0
 20
0.0
 30
0.0
 70
   128
 62
  31
 71
 -4
 72
 -2
 73
 -1
  0
VERTEX
  8
72OFGO3D01_ANY
 10
0.0
 20
0.0
 30
0.0
 70
   128
 62
  31
 71
  5
 72
  6
 73
 -7
  0
VERTEX
  8
72OFGO3D01_ANY
 10
0.0
 20
0.0
 30
0.0
 70
   128
 62
  31
 71
 -5
 72
  7
 73
  8
  0
VERTEX
  8
72OFGO3D01_ANY
 10
0.0
 20
0.0
 30
0.0
 70
   128
 62
  31
 71
 -8
 72
 -7
 73
 -6
  0
VERTEX
  8
72OFGO3D01_ANY
 10
0.0
 20
0.0
 30
0.0
 70
   128
 62
  31
 71
 -8
 72
 -6
 73
 -5
  0
SEQEND
  0
ENDBLK
  8
0
  0
BLOCK
  8
0
  2
OB__000014
 70
    64
 10
0.0
 20
0.0
 30
0.0
  3
OB__000014
  0
INSERT
  8
72OFGO3D01_ANY
  2
OB__000013
 10
0
 20
0
 30
0.542
 41
0.43
 42
0.6
 43
0.025
  0
ENDBLK
  8
0
  0
BLOCK
  8
0
  2
OB__000015
 70
    64
 10
0.0
 20
0.0
 30
0.0
  3
OB__000015
  0
POLYLINE
  8
72OFGO3D01_ANY
 66
     1
 70
    64
 71
8
 72
16
 10
0.0
 20
0.0
 30
0.0
  0
VERTEX
  8
72OFGO3D01_ANY
 10
0
 20
0
 30
-1
 70
    192
  0
VERTEX
  8
72OFGO3D01_ANY
 10
0
 20
0
 30
0
 70
    192
  0
VERTEX
  8
72OFGO3D01_ANY
 10
0
 20
-1
 30
0
 70
    192
  0
VERTEX
  8
72OFGO3D01_ANY
 10
0
 20
-1
 30
-1
 70
    192
  0
VERTEX
  8
72OFGO3D01_ANY
 10
1
 20
0
 30
0
 70
    192
  0
VERTEX
  8
72OFGO3D01_ANY
 10
1
 20
0
 30
-1
 70
    192
  0
VERTEX
  8
72OFGO3D01_ANY
 10
1
 20
-1
 30
0
 70
    192
  0
VERTEX
  8
72OFGO3D01_ANY
 10
1
 20
-1
 30
-1
 70
    192
  0
VERTEX
  8
72OFGO3D01_ANY
 10
0.0
 20
0.0
 30
0.0
 70
   128
 62
  31
 71
  1
 72
  2
 73
 -3
  0
VERTEX
  8
72OFGO3D01_ANY
 10
0.0
 20
0.0
 30
0.0
 70
   128
 62
  31
 71
 -1
 72
  3
 73
  4
  0
VERTEX
  8
72OFGO3D01_ANY
 10
0.0
 20
0.0
 30
0.0
 70
   128
 62
  31
 71
 -4
 72
 -3
 73
 -2
  0
VERTEX
  8
72OFGO3D01_ANY
 10
0.0
 20
0.0
 30
0.0
 70
   128
 62
  31
 71
 -4
 72
 -2
 73
 -1
  0
VERTEX
  8
72OFGO3D01_ANY
 10
0.0
 20
0.0
 30
0.0
 70
   128
 62
  31
 71
  5
 72
  6
 73
 -1
  0
VERTEX
  8
72OFGO3D01_ANY
 10
0.0
 20
0.0
 30
0.0
 70
   128
 62
  31
 71
 -5
 72
  1
 73
  2
  0
VERTEX
  8
72OFGO3D01_ANY
 10
0.0
 20
0.0
 30
0.0
 70
   128
 62
  31
 71
 -2
 72
 -1
 73
 -6
  0
VERTEX
  8
72OFGO3D01_ANY
 10
0.0
 20
0.0
 30
0.0
 70
   128
 62
  31
 71
 -2
 72
 -6
 73
 -5
  0
VERTEX
  8
72OFGO3D01_ANY
 10
0.0
 20
0.0
 30
0.0
 70
   128
 62
  31
 71
  7
 72
  8
 73
 -6
  0
VERTEX
  8
72OFGO3D01_ANY
 10
0.0
 20
0.0
 30
0.0
 70
   128
 62
  31
 71
 -7
 72
  6
 73
  5
  0
VERTEX
  8
72OFGO3D01_ANY
 10
0.0
 20
0.0
 30
0.0
 70
   128
 62
  31
 71
 -5
 72
 -6
 73
 -8
  0
VERTEX
  8
72OFGO3D01_ANY
 10
0.0
 20
0.0
 30
0.0
 70
   128
 62
  31
 71
 -5
 72
 -8
 73
 -7
  0
VERTEX
  8
72OFGO3D01_ANY
 10
0.0
 20
0.0
 30
0.0
 70
   128
 62
  31
 71
  3
 72
  4
 73
 -8
  0
VERTEX
  8
72OFGO3D01_ANY
 10
0.0
 20
0.0
 30
0.0
 70
   128
 62
  31
 71
 -3
 72
  8
 73
  7
  0
VERTEX
  8
72OFGO3D01_ANY
 10
0.0
 20
0.0
 30
0.0
 70
   128
 62
  31
 71
 -7
 72
 -8
 73
 -4
  0
VERTEX
  8
72OFGO3D01_ANY
 10
0.0
 20
0.0
 30
0.0
 70
   128
 62
  31
 71
 -7
 72
 -4
 73
 -3
  0
SEQEND
  0
ENDBLK
  8
0
  0
BLOCK
  8
0
  2
OB__000016
 70
    64
 10
0.0
 20
0.0
 30
0.0
  3
OB__000016
  0
INSERT
  8
72OFGO3D01_ANY
  2
OB__000015
 10
0
 20
0
 30
0.542
 41
0.43
 42
0.6
 43
0.025
  0
ENDBLK
  8
0
  0
BLOCK
  8
0
  2
OB__000017
 70
    64
 10
0.0
 20
0.0
 30
0.0
  3
OB__000017
  0
POLYLINE
  8
72OFGO3D01_ANY
 66
     1
 70
    64
 71
16
 72
204
 10
0.0
 20
0.0
 30
0.0
  0
VERTEX
  8
72OFGO3D01_ANY
 10
0.376
 20
0.508
 30
0.0911
 70
    192
  0
VERTEX
  8
72OFGO3D01_ANY
 10
0.381
 20
0.513
 30
0.0911
 70
    192
  0
VERTEX
  8
72OFGO3D01_ANY
 10
0.051
 20
0.513
 30
0.0911
 70
    192
  0
VERTEX
  8
72OFGO3D01_ANY
 10
0.056
 20
0.508
 30
0.0911
 70
    192
  0
VERTEX
  8
72OFGO3D01_ANY
 10
0.051
 20
0.513
 30
0.0061
 70
    192
  0
VERTEX
  8
72OFGO3D01_ANY
 10
0.381
 20
0.513
 30
0.0061
 70
    192
  0
VERTEX
  8
72OFGO3D01_ANY
 10
0.376
 20
0.508
 30
0.0111
 70
    192
  0
VERTEX
  8
72OFGO3D01_ANY
 10
0.056
 20
0.508
 30
0.0111
 70
    192
  0
VERTEX
  8
72OFGO3D01_ANY
 10
0.051
 20
0
 30
0.0061
 70
    192
  0
VERTEX
  8
72OFGO3D01_ANY
 10
0.381
 20
0
 30
0.0061
 70
    192
  0
VERTEX
  8
72OFGO3D01_ANY
 10
0.376
 20
0
 30
0.0111
 70
    192
  0
VERTEX
  8
72OFGO3D01_ANY
 10
0.381
 20
0
 30
0.0911
 70
    192
  0
VERTEX
  8
72OFGO3D01_ANY
 10
0.376
 20
0
 30
0.0911
 70
    192
  0
VERTEX
  8
72OFGO3D01_ANY
 10
0.051
 20
0
 30
0.0911
 70
    192
  0
VERTEX
  8
72OFGO3D01_ANY
 10
0.056
 20
0
 30
0.0911
 70
    192
  0
VERTEX
  8
72OFGO3D01_ANY
 10
0.056
 20
0
 30
0.0111
 70
    192
  0
VERTEX
  8
72OFGO3D01_ANY
 10
0.0
 20
0.0
 30
0.0
 70
   128
 62
  250
 71
 -1
 72
  2
 73
 -3
  0
VERTEX
  8
72OFGO3D01_ANY
 10
0.0
 20
0.0
 30
0.0
 70
   128
 62
  250
 71
 -1
 72
 -3
 73
  4
  0
VERTEX
  8
72OFGO3D01_ANY
 10
0.0
 20
0.0
 30
0.0
 70
   128
 62
  250
 71
 -4
 72
 -3
 73
 -2
  0
VERTEX
  8
72OFGO3D01_ANY
 10
0.0
 20
0.0
 30
0.0
 70
   128
 62
  250
 71
 -4
 72
 -2
 73
 -1
  0
VERTEX
  8
72OFGO3D01_ANY
 10
0.0
 20
0.0
 30
0.0
 70
   128
 62
  250
 71
  5
 72
  3
 73
 -2
  0
VERTEX
  8
72OFGO3D01_ANY
 10
0.0
 20
0.0
 30
0.0
 70
   128
 62
  250
 71
 -5
 72
  2
 73
  6
  0
VERTEX
  8
72OFGO3D01_ANY
 10
0.0
 20
0.0
 30
0.0
 70
   128
 62
  250
 71
 -6
 72
 -2
 73
 -3
  0
VERTEX
  8
72OFGO3D01_ANY
 10
0.0
 20
0.0
 30
0.0
 70
   128
 62
  250
 71
 -6
 72
 -3
 73
 -5
  0
VERTEX
  8
72OFGO3D01_ANY
 10
0.0
 20
0.0
 30
0.0
 70
   128
 62
  250
 71
  4
 72
  1
 73
 -7
  0
VERTEX
  8
72OFGO3D01_ANY
 10
0.0
 20
0.0
 30
0.0
 70
   128
 62
  250
 71
 -4
 72
  7
 73
  8
  0
VERTEX
  8
72OFGO3D01_ANY
 10
0.0
 20
0.0
 30
0.0
 70
   128
 62
  250
 71
 -8
 72
 -7
 73
 -1
  0
VERTEX
  8
72OFGO3D01_ANY
 10
0.0
 20
0.0
 30
0.0
 70
   128
 62
  250
 71
 -8
 72
 -1
 73
 -4
  0
VERTEX
  8
72OFGO3D01_ANY
 10
0.0
 20
0.0
 30
0.0
 70
   128
 62
  250
 71
 -9
 72
  6
 73
 -5
  0
VERTEX
  8
72OFGO3D01_ANY
 10
0.0
 20
0.0
 30
0.0
 70
   128
 62
  250
 71
 -9
 72
  5
 73
  5
  0
VERTEX
  8
72OFGO3D01_ANY
 10
0.0
 20
0.0
 30
0.0
 70
   128
 62
  250
 71
 -5
 72
 -5
 73
 -6
  0
VERTEX
  8
72OFGO3D01_ANY
 10
0.0
 20
0.0
 30
0.0
 70
   128
 62
  250
 71
 -5
 72
 -6
 73
 -9
  0
VERTEX
  8
72OFGO3D01_ANY
 10
0.0
 20
0.0
 30
0.0
 70
   128
 62
  250
 71
 -9
 72
  3
 73
 -5
  0
VERTEX
  8
72OFGO3D01_ANY
 10
0.0
 20
0.0
 30
0.0
 70
   128
 62
  250
 71
 -9
 72
  5
 73
  5
  0
VERTEX
  8
72OFGO3D01_ANY
 10
0.0
 20
0.0
 30
0.0
 70
   128
 62
  250
 71
 -5
 72
 -5
 73
 -3
  0
VERTEX
  8
72OFGO3D01_ANY
 10
0.0
 20
0.0
 30
0.0
 70
   128
 62
  250
 71
 -5
 72
 -3
 73
 -9
  0
VERTEX
  8
72OFGO3D01_ANY
 10
0.0
 20
0.0
 30
0.0
 70
   128
 62
  250
 71
 -4
 72
  3
 73
 -2
  0
VERTEX
  8
72OFGO3D01_ANY
 10
0.0
 20
0.0
 30
0.0
 70
   128
 62
  250
 71
 -4
 72
 -2
 73
 -2
  0
VERTEX
  8
72OFGO3D01_ANY
 10
0.0
 20
0.0
 30
0.0
 70
   128
 62
  250
 71
 -2
 72
 -2
 73
 -3
  0
VERTEX
  8
72OFGO3D01_ANY
 10
0.0
 20
0.0
 30
0.0
 70
   128
 62
  250
 71
 -2
 72
 -3
 73
 -4
  0
VERTEX
  8
72OFGO3D01_ANY
 10
0.0
 20
0.0
 30
0.0
 70
   128
 62
  250
 71
 -4
 72
 -2
 73
 -1
  0
VERTEX
  8
72OFGO3D01_ANY
 10
0.0
 20
0.0
 30
0.0
 70
   128
 62
  250
 71
 -4
 72
  1
 73
  1
  0
VERTEX
  8
72OFGO3D01_ANY
 10
0.0
 20
0.0
 30
0.0
 70
   128
 62
  250
 71
 -1
 72
 -1
 73
 -2
  0
VERTEX
  8
72OFGO3D01_ANY
 10
0.0
 20
0.0
 30
0.0
 70
   128
 62
  250
 71
 -1
 72
 -2
 73
 -4
  0
VERTEX
  8
72OFGO3D01_ANY
 10
0.0
 20
0.0
 30
0.0
 70
   128
 62
  250
 71
 -1
 72
  2
 73
 -3
  0
VERTEX
  8
72OFGO3D01_ANY
 10
0.0
 20
0.0
 30
0.0
 70
   128
 62
  250
 71
 -1
 72
 -3
 73
 -3
  0
VERTEX
  8
72OFGO3D01_ANY
 10
0.0
 20
0.0
 30
0.0
 70
   128
 62
  250
 71
 -3
 72
 -3
 73
 -2
  0
VERTEX
  8
72OFGO3D01_ANY
 10
0.0
 20
0.0
 30
0.0
 70
   128
 62
  250
 71
 -3
 72
 -2
 73
 -1
  0
VERTEX
  8
72OFGO3D01_ANY
 10
0.0
 20
0.0
 30
0.0
 70
   128
 62
  250
 71
 -1
 72
 -3
 73
 -4
  0
VERTEX
  8
72OFGO3D01_ANY
 10
0.0
 20
0.0
 30
0.0
 70
   128
 62
  250
 71
 -1
 72
  4
 73
  4
  0
VERTEX
  8
72OFGO3D01_ANY
 10
0.0
 20
0.0
 30
0.0
 70
   128
 62
  250
 71
 -4
 72
 -4
 73
 -3
  0
VERTEX
  8
72OFGO3D01_ANY
 10
0.0
 20
0.0
 30
0.0
 70
   128
 62
  250
 71
 -4
 72
 -3
 73
 -1
  0
VERTEX
  8
72OFGO3D01_ANY
 10
0.0
 20
0.0
 30
0.0
 70
   128
 62
  250
 71
  2
 72
  6
 73
 -10
  0
VERTEX
  8
72OFGO3D01_ANY
 10
0.0
 20
0.0
 30
0.0
 70
   128
 62
  250
 71
 -2
 72
 -10
 73
 -10
  0
VERTEX
  8
72OFGO3D01_ANY
 10
0.0
 20
0.0
 30
0.0
 70
   128
 62
  250
 71
 -10
 72
 -10
 73
 -6
  0
VERTEX
  8
72OFGO3D01_ANY
 10
0.0
 20
0.0
 30
0.0
 70
   128
 62
  250
 71
 -10
 72
 -6
 73
 -2
  0
VERTEX
  8
72OFGO3D01_ANY
 10
0.0
 20
0.0
 30
0.0
 70
   128
 62
  250
 71
  1
 72
  7
 73
 -11
  0
VERTEX
  8
72OFGO3D01_ANY
 10
0.0
 20
0.0
 30
0.0
 70
   128
 62
  250
 71
 -1
 72
 -11
 73
 -11
  0
VERTEX
  8
72OFGO3D01_ANY
 10
0.0
 20
0.0
 30
0.0
 70
   128
 62
  250
 71
 -11
 72
 -11
 73
 -7
  0
VERTEX
  8
72OFGO3D01_ANY
 10
0.0
 20
0.0
 30
0.0
 70
   128
 62
  250
 71
 -11
 72
 -7
 73
 -1
  0
VERTEX
  8
72OFGO3D01_ANY
 10
0.0
 20
0.0
 30
0.0
 70
   128
 62
  250
 71
  5
 72
  6
 73
 -10
  0
VERTEX
  8
72OFGO3D01_ANY
 10
0.0
 20
0.0
 30
0.0
 70
   128
 62
  250
 71
 -5
 72
 -10
 73
 -10
  0
VERTEX
  8
72OFGO3D01_ANY
 10
0.0
 20
0.0
 30
0.0
 70
   128
 62
  250
 71
 -10
 72
 -10
 73
 -6
  0
VERTEX
  8
72OFGO3D01_ANY
 10
0.0
 20
0.0
 30
0.0
 70
   128
 62
  250
 71
 -10
 72
 -6
 73
 -5
  0
VERTEX
  8
72OFGO3D01_ANY
 10
0.0
 20
0.0
 30
0.0
 70
   128
 62
  250
 71
  11
 72
  7
 73
 -8
  0
VERTEX
  8
72OFGO3D01_ANY
 10
0.0
 20
0.0
 30
0.0
 70
   128
 62
  250
 71
 -11
 72
 -8
 73
 -8
  0
VERTEX
  8
72OFGO3D01_ANY
 10
0.0
 20
0.0
 30
0.0
 70
   128
 62
  250
 71
 -8
 72
 -8
 73
 -7
  0
VERTEX
  8
72OFGO3D01_ANY
 10
0.0
 20
0.0
 30
0.0
 70
   128
 62
  250
 71
 -8
 72
 -7
 73
 -11
  0
VERTEX
  8
72OFGO3D01_ANY
 10
0.0
 20
0.0
 30
0.0
 70
   128
 62
  250
 71
 -2
 72
  10
 73
 -12
  0
VERTEX
  8
72OFGO3D01_ANY
 10
0.0
 20
0.0
 30
0.0
 70
   128
 62
  250
 71
 -2
 72
  12
 73
  12
  0
VERTEX
  8
72OFGO3D01_ANY
 10
0.0
 20
0.0
 30
0.0
 70
   128
 62
  250
 71
 -12
 72
 -12
 73
 -10
  0
VERTEX
  8
72OFGO3D01_ANY
 10
0.0
 20
0.0
 30
0.0
 70
   128
 62
  250
 71
 -12
 72
 -10
 73
 -2
  0
VERTEX
  8
72OFGO3D01_ANY
 10
0.0
 20
0.0
 30
0.0
 70
   128
 62
  250
 71
  12
 72
  10
 73
 -6
  0
VERTEX
  8
72OFGO3D01_ANY
 10
0.0
 20
0.0
 30
0.0
 70
   128
 62
  250
 71
 -12
 72
 -6
 73
 -6
  0
VERTEX
  8
72OFGO3D01_ANY
 10
0.0
 20
0.0
 30
0.0
 70
   128
 62
  250
 71
 -6
 72
 -6
 73
 -10
  0
VERTEX
  8
72OFGO3D01_ANY
 10
0.0
 20
0.0
 30
0.0
 70
   128
 62
  250
 71
 -6
 72
 -10
 73
 -12
  0
VERTEX
  8
72OFGO3D01_ANY
 10
0.0
 20
0.0
 30
0.0
 70
   128
 62
  250
 71
 -12
 72
  6
 73
 -2
  0
VERTEX
  8
72OFGO3D01_ANY
 10
0.0
 20
0.0
 30
0.0
 70
   128
 62
  250
 71
 -12
 72
  2
 73
  2
  0
VERTEX
  8
72OFGO3D01_ANY
 10
0.0
 20
0.0
 30
0.0
 70
   128
 62
  250
 71
 -2
 72
 -2
 73
 -6
  0
VERTEX
  8
72OFGO3D01_ANY
 10
0.0
 20
0.0
 30
0.0
 70
   128
 62
  250
 71
 -2
 72
 -6
 73
 -12
  0
VERTEX
  8
72OFGO3D01_ANY
 10
0.0
 20
0.0
 30
0.0
 70
   128
 62
  250
 71
 -1
 72
  11
 73
 -13
  0
VERTEX
  8
72OFGO3D01_ANY
 10
0.0
 20
0.0
 30
0.0
 70
   128
 62
  250
 71
 -1
 72
  13
 73
  13
  0
VERTEX
  8
72OFGO3D01_ANY
 10
0.0
 20
0.0
 30
0.0
 70
   128
 62
  250
 71
 -13
 72
 -13
 73
 -11
  0
VERTEX
  8
72OFGO3D01_ANY
 10
0.0
 20
0.0
 30
0.0
 70
   128
 62
  250
 71
 -13
 72
 -11
 73
 -1
  0
VERTEX
  8
72OFGO3D01_ANY
 10
0.0
 20
0.0
 30
0.0
 70
   128
 62
  250
 71
  13
 72
  11
 73
 -7
  0
VERTEX
  8
72OFGO3D01_ANY
 10
0.0
 20
0.0
 30
0.0
 70
   128
 62
  250
 71
 -13
 72
 -7
 73
 -7
  0
VERTEX
  8
72OFGO3D01_ANY
 10
0.0
 20
0.0
 30
0.0
 70
   128
 62
  250
 71
 -7
 72
 -7
 73
 -11
  0
VERTEX
  8
72OFGO3D01_ANY
 10
0.0
 20
0.0
 30
0.0
 70
   128
 62
  250
 71
 -7
 72
 -11
 73
 -13
  0
VERTEX
  8
72OFGO3D01_ANY
 10
0.0
 20
0.0
 30
0.0
 70
   128
 62
  250
 71
 -13
 72
  7
 73
 -1
  0
VERTEX
  8
72OFGO3D01_ANY
 10
0.0
 20
0.0
 30
0.0
 70
   128
 62
  250
 71
 -13
 72
  1
 73
  1
  0
VERTEX
  8
72OFGO3D01_ANY
 10
0.0
 20
0.0
 30
0.0
 70
   128
 62
  250
 71
 -1
 72
 -1
 73
 -7
  0
VERTEX
  8
72OFGO3D01_ANY
 10
0.0
 20
0.0
 30
0.0
 70
   128
 62
  250
 71
 -1
 72
 -7
 73
 -13
  0
VERTEX
  8
72OFGO3D01_ANY
 10
0.0
 20
0.0
 30
0.0
 70
   128
 62
  250
 71
 -10
 72
  11
 73
 -13
  0
VERTEX
  8
72OFGO3D01_ANY
 10
0.0
 20
0.0
 30
0.0
 70
   128
 62
  250
 71
 -10
 72
 -13
 73
 -13
  0
VERTEX
  8
72OFGO3D01_ANY
 10
0.0
 20
0.0
 30
0.0
 70
   128
 62
  250
 71
 -13
 72
 -13
 73
 -11
  0
VERTEX
  8
72OFGO3D01_ANY
 10
0.0
 20
0.0
 30
0.0
 70
   128
 62
  250
 71
 -13
 72
 -11
 73
 -10
  0
VERTEX
  8
72OFGO3D01_ANY
 10
0.0
 20
0.0
 30
0.0
 70
   128
 62
  250
 71
 -10
 72
  13
 73
 -12
  0
VERTEX
  8
72OFGO3D01_ANY
 10
0.0
 20
0.0
 30
0.0
 70
   128
 62
  250
 71
 -10
 72
  12
 73
  12
  0
VERTEX
  8
72OFGO3D01_ANY
 10
0.0
 20
0.0
 30
0.0
 70
   128
 62
  250
 71
 -12
 72
 -12
 73
 -13
  0
VERTEX
  8
72OFGO3D01_ANY
 10
0.0
 20
0.0
 30
0.0
 70
   128
 62
  250
 71
 -12
 72
 -13
 73
 -10
  0
VERTEX
  8
72OFGO3D01_ANY
 10
0.0
 20
0.0
 30
0.0
 70
   128
 62
  250
 71
  12
 72
  13
 73
 -11
  0
VERTEX
  8
72OFGO3D01_ANY
 10
0.0
 20
0.0
 30
0.0
 70
   128
 62
  250
 71
 -12
 72
 -11
 73
 -11
  0
VERTEX
  8
72OFGO3D01_ANY
 10
0.0
 20
0.0
 30
0.0
 70
   128
 62
  250
 71
 -11
 72
 -11
 73
 -13
  0
VERTEX
  8
72OFGO3D01_ANY
 10
0.0
 20
0.0
 30
0.0
 70
   128
 62
  250
 71
 -11
 72
 -13
 73
 -12
  0
VERTEX
  8
72OFGO3D01_ANY
 10
0.0
 20
0.0
 30
0.0
 70
   128
 62
  250
 71
 -12
 72
 -11
 73
 -10
  0
VERTEX
  8
72OFGO3D01_ANY
 10
0.0
 20
0.0
 30
0.0
 70
   128
 62
  250
 71
 -12
 72
  10
 73
  10
  0
VERTEX
  8
72OFGO3D01_ANY
 10
0.0
 20
0.0
 30
0.0
 70
   128
 62
  250
 71
 -10
 72
 -10
 73
 -11
  0
VERTEX
  8
72OFGO3D01_ANY
 10
0.0
 20
0.0
 30
0.0
 70
   128
 62
  250
 71
 -10
 72
 -11
 73
 -12
  0
VERTEX
  8
72OFGO3D01_ANY
 10
0.0
 20
0.0
 30
0.0
 70
   128
 62
  250
 71
 -2
 72
  1
 73
 -13
  0
VERTEX
  8
72OFGO3D01_ANY
 10
0.0
 20
0.0
 30
0.0
 70
   128
 62
  250
 71
 -2
 72
 -13
 73
 -13
  0
VERTEX
  8
72OFGO3D01_ANY
 10
0.0
 20
0.0
 30
0.0
 70
   128
 62
  250
 71
 -13
 72
 -13
 73
 -1
  0
VERTEX
  8
72OFGO3D01_ANY
 10
0.0
 20
0.0
 30
0.0
 70
   128
 62
  250
 71
 -13
 72
 -1
 73
 -2
  0
VERTEX
  8
72OFGO3D01_ANY
 10
0.0
 20
0.0
 30
0.0
 70
   128
 62
  250
 71
 -2
 72
  13
 73
 -12
  0
VERTEX
  8
72OFGO3D01_ANY
 10
0.0
 20
0.0
 30
0.0
 70
   128
 62
  250
 71
 -2
 72
  12
 73
  12
  0
VERTEX
  8
72OFGO3D01_ANY
 10
0.0
 20
0.0
 30
0.0
 70
   128
 62
  250
 71
 -12
 72
 -12
 73
 -13
  0
VERTEX
  8
72OFGO3D01_ANY
 10
0.0
 20
0.0
 30
0.0
 70
   128
 62
  250
 71
 -12
 72
 -13
 73
 -2
  0
VERTEX
  8
72OFGO3D01_ANY
 10
0.0
 20
0.0
 30
0.0
 70
   128
 62
  250
 71
  12
 72
  13
 73
 -1
  0
VERTEX
  8
72OFGO3D01_ANY
 10
0.0
 20
0.0
 30
0.0
 70
   128
 62
  250
 71
 -12
 72
 -1
 73
 -1
  0
VERTEX
  8
72OFGO3D01_ANY
 10
0.0
 20
0.0
 30
0.0
 70
   128
 62
  250
 71
 -1
 72
 -1
 73
 -13
  0
VERTEX
  8
72OFGO3D01_ANY
 10
0.0
 20
0.0
 30
0.0
 70
   128
 62
  250
 71
 -1
 72
 -13
 73
 -12
  0
VERTEX
  8
72OFGO3D01_ANY
 10
0.0
 20
0.0
 30
0.0
 70
   128
 62
  250
 71
 -12
 72
 -1
 73
 -2
  0
VERTEX
  8
72OFGO3D01_ANY
 10
0.0
 20
0.0
 30
0.0
 70
   128
 62
  250
 71
 -12
 72
  2
 73
  2
  0
VERTEX
  8
72OFGO3D01_ANY
 10
0.0
 20
0.0
 30
0.0
 70
   128
 62
  250
 71
 -2
 72
 -2
 73
 -1
  0
VERTEX
  8
72OFGO3D01_ANY
 10
0.0
 20
0.0
 30
0.0
 70
   128
 62
  250
 71
 -2
 72
 -1
 73
 -12
  0
VERTEX
  8
72OFGO3D01_ANY
 10
0.0
 20
0.0
 30
0.0
 70
   128
 62
  250
 71
  5
 72
  3
 73
 -14
  0
VERTEX
  8
72OFGO3D01_ANY
 10
0.0
 20
0.0
 30
0.0
 70
   128
 62
  250
 71
 -5
 72
 -14
 73
 -14
  0
VERTEX
  8
72OFGO3D01_ANY
 10
0.0
 20
0.0
 30
0.0
 70
   128
 62
  250
 71
 -14
 72
 -14
 73
 -3
  0
VERTEX
  8
72OFGO3D01_ANY
 10
0.0
 20
0.0
 30
0.0
 70
   128
 62
  250
 71
 -14
 72
 -3
 73
 -5
  0
VERTEX
  8
72OFGO3D01_ANY
 10
0.0
 20
0.0
 30
0.0
 70
   128
 62
  250
 71
 -15
 72
  8
 73
 -4
  0
VERTEX
  8
72OFGO3D01_ANY
 10
0.0
 20
0.0
 30
0.0
 70
   128
 62
  250
 71
 -15
 72
  4
 73
  4
  0
VERTEX
  8
72OFGO3D01_ANY
 10
0.0
 20
0.0
 30
0.0
 70
   128
 62
  250
 71
 -4
 72
 -4
 73
 -8
  0
VERTEX
  8
72OFGO3D01_ANY
 10
0.0
 20
0.0
 30
0.0
 70
   128
 62
  250
 71
 -4
 72
 -8
 73
 -15
  0
VERTEX
  8
72OFGO3D01_ANY
 10
0.0
 20
0.0
 30
0.0
 70
   128
 62
  250
 71
  14
 72
  15
 73
 -4
  0
VERTEX
  8
72OFGO3D01_ANY
 10
0.0
 20
0.0
 30
0.0
 70
   128
 62
  250
 71
 -14
 72
 -4
 73
 -4
  0
VERTEX
  8
72OFGO3D01_ANY
 10
0.0
 20
0.0
 30
0.0
 70
   128
 62
  250
 71
 -4
 72
 -4
 73
 -15
  0
VERTEX
  8
72OFGO3D01_ANY
 10
0.0
 20
0.0
 30
0.0
 70
   128
 62
  250
 71
 -4
 72
 -15
 73
 -14
  0
VERTEX
  8
72OFGO3D01_ANY
 10
0.0
 20
0.0
 30
0.0
 70
   128
 62
  250
 71
 -14
 72
 -4
 73
 -3
  0
VERTEX
  8
72OFGO3D01_ANY
 10
0.0
 20
0.0
 30
0.0
 70
   128
 62
  250
 71
 -14
 72
  3
 73
  3
  0
VERTEX
  8
72OFGO3D01_ANY
 10
0.0
 20
0.0
 30
0.0
 70
   128
 62
  250
 71
 -3
 72
 -3
 73
 -4
  0
VERTEX
  8
72OFGO3D01_ANY
 10
0.0
 20
0.0
 30
0.0
 70
   128
 62
  250
 71
 -3
 72
 -4
 73
 -14
  0
VERTEX
  8
72OFGO3D01_ANY
 10
0.0
 20
0.0
 30
0.0
 70
   128
 62
  250
 71
 -3
 72
  4
 73
 -15
  0
VERTEX
  8
72OFGO3D01_ANY
 10
0.0
 20
0.0
 30
0.0
 70
   128
 62
  250
 71
 -3
 72
 -15
 73
 -15
  0
VERTEX
  8
72OFGO3D01_ANY
 10
0.0
 20
0.0
 30
0.0
 70
   128
 62
  250
 71
 -15
 72
 -15
 73
 -4
  0
VERTEX
  8
72OFGO3D01_ANY
 10
0.0
 20
0.0
 30
0.0
 70
   128
 62
  250
 71
 -15
 72
 -4
 73
 -3
  0
VERTEX
  8
72OFGO3D01_ANY
 10
0.0
 20
0.0
 30
0.0
 70
   128
 62
  250
 71
 -3
 72
  15
 73
 -14
  0
VERTEX
  8
72OFGO3D01_ANY
 10
0.0
 20
0.0
 30
0.0
 70
   128
 62
  250
 71
 -3
 72
  14
 73
  14
  0
VERTEX
  8
72OFGO3D01_ANY
 10
0.0
 20
0.0
 30
0.0
 70
   128
 62
  250
 71
 -14
 72
 -14
 73
 -15
  0
VERTEX
  8
72OFGO3D01_ANY
 10
0.0
 20
0.0
 30
0.0
 70
   128
 62
  250
 71
 -14
 72
 -15
 73
 -3
  0
VERTEX
  8
72OFGO3D01_ANY
 10
0.0
 20
0.0
 30
0.0
 70
   128
 62
  250
 71
 -5
 72
  14
 73
 -9
  0
VERTEX
  8
72OFGO3D01_ANY
 10
0.0
 20
0.0
 30
0.0
 70
   128
 62
  250
 71
 -5
 72
  9
 73
  9
  0
VERTEX
  8
72OFGO3D01_ANY
 10
0.0
 20
0.0
 30
0.0
 70
   128
 62
  250
 71
 -9
 72
 -9
 73
 -14
  0
VERTEX
  8
72OFGO3D01_ANY
 10
0.0
 20
0.0
 30
0.0
 70
   128
 62
  250
 71
 -9
 72
 -14
 73
 -5
  0
VERTEX
  8
72OFGO3D01_ANY
 10
0.0
 20
0.0
 30
0.0
 70
   128
 62
  250
 71
  9
 72
  14
 73
 -3
  0
VERTEX
  8
72OFGO3D01_ANY
 10
0.0
 20
0.0
 30
0.0
 70
   128
 62
  250
 71
 -9
 72
 -3
 73
 -3
  0
VERTEX
  8
72OFGO3D01_ANY
 10
0.0
 20
0.0
 30
0.0
 70
   128
 62
  250
 71
 -3
 72
 -3
 73
 -14
  0
VERTEX
  8
72OFGO3D01_ANY
 10
0.0
 20
0.0
 30
0.0
 70
   128
 62
  250
 71
 -3
 72
 -14
 73
 -9
  0
VERTEX
  8
72OFGO3D01_ANY
 10
0.0
 20
0.0
 30
0.0
 70
   128
 62
  250
 71
  4
 72
  8
 73
 -16
  0
VERTEX
  8
72OFGO3D01_ANY
 10
0.0
 20
0.0
 30
0.0
 70
   128
 62
  250
 71
 -4
 72
 -16
 73
 -16
  0
VERTEX
  8
72OFGO3D01_ANY
 10
0.0
 20
0.0
 30
0.0
 70
   128
 62
  250
 71
 -16
 72
 -16
 73
 -8
  0
VERTEX
  8
72OFGO3D01_ANY
 10
0.0
 20
0.0
 30
0.0
 70
   128
 62
  250
 71
 -16
 72
 -8
 73
 -4
  0
VERTEX
  8
72OFGO3D01_ANY
 10
0.0
 20
0.0
 30
0.0
 70
   128
 62
  250
 71
 -4
 72
  16
 73
 -15
  0
VERTEX
  8
72OFGO3D01_ANY
 10
0.0
 20
0.0
 30
0.0
 70
   128
 62
  250
 71
 -4
 72
  15
 73
  15
  0
VERTEX
  8
72OFGO3D01_ANY
 10
0.0
 20
0.0
 30
0.0
 70
   128
 62
  250
 71
 -15
 72
 -15
 73
 -16
  0
VERTEX
  8
72OFGO3D01_ANY
 10
0.0
 20
0.0
 30
0.0
 70
   128
 62
  250
 71
 -15
 72
 -16
 73
 -4
  0
VERTEX
  8
72OFGO3D01_ANY
 10
0.0
 20
0.0
 30
0.0
 70
   128
 62
  250
 71
  15
 72
  16
 73
 -8
  0
VERTEX
  8
72OFGO3D01_ANY
 10
0.0
 20
0.0
 30
0.0
 70
   128
 62
  250
 71
 -15
 72
 -8
 73
 -8
  0
VERTEX
  8
72OFGO3D01_ANY
 10
0.0
 20
0.0
 30
0.0
 70
   128
 62
  250
 71
 -8
 72
 -8
 73
 -16
  0
VERTEX
  8
72OFGO3D01_ANY
 10
0.0
 20
0.0
 30
0.0
 70
   128
 62
  250
 71
 -8
 72
 -16
 73
 -15
  0
VERTEX
  8
72OFGO3D01_ANY
 10
0.0
 20
0.0
 30
0.0
 70
   128
 62
  250
 71
  16
 72
  8
 73
 -7
  0
VERTEX
  8
72OFGO3D01_ANY
 10
0.0
 20
0.0
 30
0.0
 70
   128
 62
  250
 71
 -16
 72
 -7
 73
 -7
  0
VERTEX
  8
72OFGO3D01_ANY
 10
0.0
 20
0.0
 30
0.0
 70
   128
 62
  250
 71
 -7
 72
 -7
 73
 -8
  0
VERTEX
  8
72OFGO3D01_ANY
 10
0.0
 20
0.0
 30
0.0
 70
   128
 62
  250
 71
 -7
 72
 -8
 73
 -16
  0
VERTEX
  8
72OFGO3D01_ANY
 10
0.0
 20
0.0
 30
0.0
 70
   128
 62
  250
 71
  14
 72
  15
 73
 -16
  0
VERTEX
  8
72OFGO3D01_ANY
 10
0.0
 20
0.0
 30
0.0
 70
   128
 62
  250
 71
 -14
 72
 -16
 73
 -16
  0
VERTEX
  8
72OFGO3D01_ANY
 10
0.0
 20
0.0
 30
0.0
 70
   128
 62
  250
 71
 -16
 72
 -16
 73
 -15
  0
VERTEX
  8
72OFGO3D01_ANY
 10
0.0
 20
0.0
 30
0.0
 70
   128
 62
  250
 71
 -16
 72
 -15
 73
 -14
  0
VERTEX
  8
72OFGO3D01_ANY
 10
0.0
 20
0.0
 30
0.0
 70
   128
 62
  250
 71
 -14
 72
 -16
 73
 -9
  0
VERTEX
  8
72OFGO3D01_ANY
 10
0.0
 20
0.0
 30
0.0
 70
   128
 62
  250
 71
 -14
 72
  9
 73
  9
  0
VERTEX
  8
72OFGO3D01_ANY
 10
0.0
 20
0.0
 30
0.0
 70
   128
 62
  250
 71
 -9
 72
 -9
 73
 -16
  0
VERTEX
  8
72OFGO3D01_ANY
 10
0.0
 20
0.0
 30
0.0
 70
   128
 62
  250
 71
 -9
 72
 -16
 73
 -14
  0
VERTEX
  8
72OFGO3D01_ANY
 10
0.0
 20
0.0
 30
0.0
 70
   128
 62
  250
 71
 -9
 72
  16
 73
 -15
  0
VERTEX
  8
72OFGO3D01_ANY
 10
0.0
 20
0.0
 30
0.0
 70
   128
 62
  250
 71
 -9
 72
 -15
 73
 -15
  0
VERTEX
  8
72OFGO3D01_ANY
 10
0.0
 20
0.0
 30
0.0
 70
   128
 62
  250
 71
 -15
 72
 -15
 73
 -16
  0
VERTEX
  8
72OFGO3D01_ANY
 10
0.0
 20
0.0
 30
0.0
 70
   128
 62
  250
 71
 -15
 72
 -16
 73
 -9
  0
VERTEX
  8
72OFGO3D01_ANY
 10
0.0
 20
0.0
 30
0.0
 70
   128
 62
  250
 71
 -9
 72
  15
 73
 -14
  0
VERTEX
  8
72OFGO3D01_ANY
 10
0.0
 20
0.0
 30
0.0
 70
   128
 62
  250
 71
 -9
 72
  14
 73
  14
  0
VERTEX
  8
72OFGO3D01_ANY
 10
0.0
 20
0.0
 30
0.0
 70
   128
 62
  250
 71
 -14
 72
 -14
 73
 -15
  0
VERTEX
  8
72OFGO3D01_ANY
 10
0.0
 20
0.0
 30
0.0
 70
   128
 62
  250
 71
 -14
 72
 -15
 73
 -9
  0
VERTEX
  8
72OFGO3D01_ANY
 10
0.0
 20
0.0
 30
0.0
 70
   128
 62
  250
 71
 -16
 72
  9
 73
 -10
  0
VERTEX
  8
72OFGO3D01_ANY
 10
0.0
 20
0.0
 30
0.0
 70
   128
 62
  250
 71
 -16
 72
 -10
 73
 -10
  0
VERTEX
  8
72OFGO3D01_ANY
 10
0.0
 20
0.0
 30
0.0
 70
   128
 62
  250
 71
 -10
 72
 -10
 73
 -9
  0
VERTEX
  8
72OFGO3D01_ANY
 10
0.0
 20
0.0
 30
0.0
 70
   128
 62
  250
 71
 -10
 72
 -9
 73
 -16
  0
VERTEX
  8
72OFGO3D01_ANY
 10
0.0
 20
0.0
 30
0.0
 70
   128
 62
  250
 71
 -16
 72
 -10
 73
 -11
  0
VERTEX
  8
72OFGO3D01_ANY
 10
0.0
 20
0.0
 30
0.0
 70
   128
 62
  250
 71
 -16
 72
  11
 73
  11
  0
VERTEX
  8
72OFGO3D01_ANY
 10
0.0
 20
0.0
 30
0.0
 70
   128
 62
  250
 71
 -11
 72
 -11
 73
 -10
  0
VERTEX
  8
72OFGO3D01_ANY
 10
0.0
 20
0.0
 30
0.0
 70
   128
 62
  250
 71
 -11
 72
 -10
 73
 -16
  0
VERTEX
  8
72OFGO3D01_ANY
 10
0.0
 20
0.0
 30
0.0
 70
   128
 62
  250
 71
 -11
 72
  10
 73
 -9
  0
VERTEX
  8
72OFGO3D01_ANY
 10
0.0
 20
0.0
 30
0.0
 70
   128
 62
  250
 71
 -11
 72
 -9
 73
 -9
  0
VERTEX
  8
72OFGO3D01_ANY
 10
0.0
 20
0.0
 30
0.0
 70
   128
 62
  250
 71
 -9
 72
 -9
 73
 -10
  0
VERTEX
  8
72OFGO3D01_ANY
 10
0.0
 20
0.0
 30
0.0
 70
   128
 62
  250
 71
 -9
 72
 -10
 73
 -11
  0
VERTEX
  8
72OFGO3D01_ANY
 10
0.0
 20
0.0
 30
0.0
 70
   128
 62
  250
 71
 -11
 72
 -9
 73
 -16
  0
VERTEX
  8
72OFGO3D01_ANY
 10
0.0
 20
0.0
 30
0.0
 70
   128
 62
  250
 71
 -11
 72
  16
 73
  16
  0
VERTEX
  8
72OFGO3D01_ANY
 10
0.0
 20
0.0
 30
0.0
 70
   128
 62
  250
 71
 -16
 72
 -16
 73
 -9
  0
VERTEX
  8
72OFGO3D01_ANY
 10
0.0
 20
0.0
 30
0.0
 70
   128
 62
  250
 71
 -16
 72
 -9
 73
 -11
  0
VERTEX
  8
72OFGO3D01_ANY
 10
0.0
 20
0.0
 30
0.0
 70
   128
 62
  250
 71
 -5
 72
  10
 73
 -9
  0
VERTEX
  8
72OFGO3D01_ANY
 10
0.0
 20
0.0
 30
0.0
 70
   128
 62
  250
 71
 -5
 72
  9
 73
  9
  0
VERTEX
  8
72OFGO3D01_ANY
 10
0.0
 20
0.0
 30
0.0
 70
   128
 62
  250
 71
 -9
 72
 -9
 73
 -10
  0
VERTEX
  8
72OFGO3D01_ANY
 10
0.0
 20
0.0
 30
0.0
 70
   128
 62
  250
 71
 -9
 72
 -10
 73
 -5
  0
VERTEX
  8
72OFGO3D01_ANY
 10
0.0
 20
0.0
 30
0.0
 70
   128
 62
  250
 71
  9
 72
  10
 73
 -6
  0
VERTEX
  8
72OFGO3D01_ANY
 10
0.0
 20
0.0
 30
0.0
 70
   128
 62
  250
 71
 -9
 72
 -6
 73
 -6
  0
VERTEX
  8
72OFGO3D01_ANY
 10
0.0
 20
0.0
 30
0.0
 70
   128
 62
  250
 71
 -6
 72
 -6
 73
 -10
  0
VERTEX
  8
72OFGO3D01_ANY
 10
0.0
 20
0.0
 30
0.0
 70
   128
 62
  250
 71
 -6
 72
 -10
 73
 -9
  0
VERTEX
  8
72OFGO3D01_ANY
 10
0.0
 20
0.0
 30
0.0
 70
   128
 62
  250
 71
 -16
 72
  7
 73
 -11
  0
VERTEX
  8
72OFGO3D01_ANY
 10
0.0
 20
0.0
 30
0.0
 70
   128
 62
  250
 71
 -16
 72
  11
 73
  11
  0
VERTEX
  8
72OFGO3D01_ANY
 10
0.0
 20
0.0
 30
0.0
 70
   128
 62
  250
 71
 -11
 72
 -11
 73
 -7
  0
VERTEX
  8
72OFGO3D01_ANY
 10
0.0
 20
0.0
 30
0.0
 70
   128
 62
  250
 71
 -11
 72
 -7
 73
 -16
  0
VERTEX
  8
72OFGO3D01_ANY
 10
0.0
 20
0.0
 30
0.0
 70
   128
 62
  250
 71
 -11
 72
  8
 73
 -16
  0
VERTEX
  8
72OFGO3D01_ANY
 10
0.0
 20
0.0
 30
0.0
 70
   128
 62
  250
 71
 -11
 72
  16
 73
  16
  0
VERTEX
  8
72OFGO3D01_ANY
 10
0.0
 20
0.0
 30
0.0
 70
   128
 62
  250
 71
 -16
 72
 -16
 73
 -8
  0
VERTEX
  8
72OFGO3D01_ANY
 10
0.0
 20
0.0
 30
0.0
 70
   128
 62
  250
 71
 -16
 72
 -8
 73
 -11
  0
SEQEND
  0
ENDBLK
  8
0
  0
BLOCK
  8
0
  2
OB__000018
 70
    64
 10
0.0
 20
0.0
 30
0.0
  3
OB__000018
  0
INSERT
  8
72OFGO3D01_ANY
  2
OB__000017
 10
0.001
 20
-0.58
 30
0.067
 41
1
 42
1
 43
1
  0
ENDBLK
  8
0
  0
BLOCK
  8
0
  2
OB__000019
 70
    64
 10
0.0
 20
0.0
 30
0.0
  3
OB__000019
  0
POLYLINE
  8
72OFGO3D01_G__FS2
 66
     1
 70
    64
 71
8
 72
24
 10
0.0
 20
0.0
 30
0.0
  0
VERTEX
  8
72OFGO3D01_G__FS2
 10
0
 20
0
 30
0
 70
    192
  0
VERTEX
  8
72OFGO3D01_G__FS2
 10
1
 20
0
 30
0
 70
    192
  0
VERTEX
  8
72OFGO3D01_G__FS2
 10
1
 20
0
 30
1
 70
    192
  0
VERTEX
  8
72OFGO3D01_G__FS2
 10
0
 20
0
 30
1
 70
    192
  0
VERTEX
  8
72OFGO3D01_G__FS2
 10
0
 20
0.019
 30
0
 70
    192
  0
VERTEX
  8
72OFGO3D01_G__FS2
 10
1
 20
0.019
 30
0
 70
    192
  0
VERTEX
  8
72OFGO3D01_G__FS2
 10
1
 20
0.019
 30
1
 70
    192
  0
VERTEX
  8
72OFGO3D01_G__FS2
 10
0
 20
0.019
 30
1
 70
    192
  0
VERTEX
  8
72OFGO3D01_G__FS2
 10
0.0
 20
0.0
 30
0.0
 70
   128
 62
  31
 71
  1
 72
  2
 73
 -3
  0
VERTEX
  8
72OFGO3D01_G__FS2
 10
0.0
 20
0.0
 30
0.0
 70
   128
 62
  31
 71
 -1
 72
  3
 73
  4
  0
VERTEX
  8
72OFGO3D01_G__FS2
 10
0.0
 20
0.0
 30
0.0
 70
   128
 62
  31
 71
 -4
 72
 -3
 73
 -2
  0
VERTEX
  8
72OFGO3D01_G__FS2
 10
0.0
 20
0.0
 30
0.0
 70
   128
 62
  31
 71
 -4
 72
 -2
 73
 -1
  0
VERTEX
  8
72OFGO3D01_G__FS2
 10
0.0
 20
0.0
 30
0.0
 70
   128
 62
  31
 71
  5
 72
  6
 73
 -7
  0
VERTEX
  8
72OFGO3D01_G__FS2
 10
0.0
 20
0.0
 30
0.0
 70
   128
 62
  31
 71
 -5
 72
  7
 73
  8
  0
VERTEX
  8
72OFGO3D01_G__FS2
 10
0.0
 20
0.0
 30
0.0
 70
   128
 62
  31
 71
 -8
 72
 -7
 73
 -6
  0
VERTEX
  8
72OFGO3D01_G__FS2
 10
0.0
 20
0.0
 30
0.0
 70
   128
 62
  31
 71
 -8
 72
 -6
 73
 -5
  0
VERTEX
  8
72OFGO3D01_G__FS2
 10
0.0
 20
0.0
 30
0.0
 70
   128
 62
  31
 71
  5
 72
  1
 73
 -4
  0
VERTEX
  8
72OFGO3D01_G__FS2
 10
0.0
 20
0.0
 30
0.0
 70
   128
 62
  31
 71
 -5
 72
  4
 73
  8
  0
VERTEX
  8
72OFGO3D01_G__FS2
 10
0.0
 20
0.0
 30
0.0
 70
   128
 62
  31
 71
 -8
 72
 -4
 73
 -1
  0
VERTEX
  8
72OFGO3D01_G__FS2
 10
0.0
 20
0.0
 30
0.0
 70
   128
 62
  31
 71
 -8
 72
 -1
 73
 -5
  0
VERTEX
  8
72OFGO3D01_G__FS2
 10
0.0
 20
0.0
 30
0.0
 70
   128
 62
  31
 71
  8
 72
  4
 73
 -3
  0
VERTEX
  8
72OFGO3D01_G__FS2
 10
0.0
 20
0.0
 30
0.0
 70
   128
 62
  31
 71
 -8
 72
  3
 73
  7
  0
VERTEX
  8
72OFGO3D01_G__FS2
 10
0.0
 20
0.0
 30
0.0
 70
   128
 62
  31
 71
 -7
 72
 -3
 73
 -4
  0
VERTEX
  8
72OFGO3D01_G__FS2
 10
0.0
 20
0.0
 30
0.0
 70
   128
 62
  31
 71
 -7
 72
 -4
 73
 -8
  0
VERTEX
  8
72OFGO3D01_G__FS2
 10
0.0
 20
0.0
 30
0.0
 70
   128
 62
  31
 71
  7
 72
  3
 73
 -2
  0
VERTEX
  8
72OFGO3D01_G__FS2
 10
0.0
 20
0.0
 30
0.0
 70
   128
 62
  31
 71
 -7
 72
  2
 73
  6
  0
VERTEX
  8
72OFGO3D01_G__FS2
 10
0.0
 20
0.0
 30
0.0
 70
   128
 62
  31
 71
 -6
 72
 -2
 73
 -3
  0
VERTEX
  8
72OFGO3D01_G__FS2
 10
0.0
 20
0.0
 30
0.0
 70
   128
 62
  31
 71
 -6
 72
 -3
 73
 -7
  0
VERTEX
  8
72OFGO3D01_G__FS2
 10
0.0
 20
0.0
 30
0.0
 70
   128
 62
  31
 71
  6
 72
  2
 73
 -1
  0
VERTEX
  8
72OFGO3D01_G__FS2
 10
0.0
 20
0.0
 30
0.0
 70
   128
 62
  31
 71
 -6
 72
  1
 73
  5
  0
VERTEX
  8
72OFGO3D01_G__FS2
 10
0.0
 20
0.0
 30
0.0
 70
   128
 62
  31
 71
 -5
 72
 -1
 73
 -2
  0
VERTEX
  8
72OFGO3D01_G__FS2
 10
0.0
 20
0.0
 30
0.0
 70
   128
 62
  31
 71
 -5
 72
 -2
 73
 -6
  0
SEQEND
  0
ENDBLK
  8
0
  0
BLOCK
  8
0
  2
OB__000020
 70
    64
 10
0.0
 20
0.0
 30
0.0
  3
OB__000020
  0
INSERT
  8
72OFGO3D01_G__FS2
  2
OB__000019
 10
0.001
 20
-0.599
 30
0.067
 41
0.428
 42
1
 43
0.148
  0
ENDBLK
  8
0
  0
BLOCK
  8
0
  2
OB__000021
 70
    64
 10
0.0
 20
0.0
 30
0.0
  3
OB__000021
  0
POLYLINE
  8
72OFGO3D01_CO__GRIFF__F14
 66
     1
 70
    64
 71
52
 72
784
 10
0.0
 20
0.0
 30
0.0
  0
VERTEX
  8
72OFGO3D01_CO__GRIFF__F14
 10
0
 20
-0.028
 30
-0.0045
 70
    192
  0
VERTEX
  8
72OFGO3D01_CO__GRIFF__F14
 10
-0.014341
 20
-0.027149
 30
0.0045
 70
    192
  0
VERTEX
  8
72OFGO3D01_CO__GRIFF__F14
 10
-0.014341
 20
-0.027149
 30
-0.0045
 70
    192
  0
VERTEX
  8
72OFGO3D01_CO__GRIFF__F14
 10
0
 20
-0.028
 30
0.0045
 70
    192
  0
VERTEX
  8
72OFGO3D01_CO__GRIFF__F14
 10
-0.013868
 20
-0.023177
 30
-0.0045
 70
    192
  0
VERTEX
  8
72OFGO3D01_CO__GRIFF__F14
 10
0
 20
-0.024
 30
0.0045
 70
    192
  0
VERTEX
  8
72OFGO3D01_CO__GRIFF__F14
 10
-0.013868
 20
-0.023177
 30
0.0045
 70
    192
  0
VERTEX
  8
72OFGO3D01_CO__GRIFF__F14
 10
0
 20
-0.024
 30
-0.0045
 70
    192
  0
VERTEX
  8
72OFGO3D01_CO__GRIFF__F14
 10
0.027541
 20
-0.02072
 30
-0.0045
 70
    192
  0
VERTEX
  8
72OFGO3D01_CO__GRIFF__F14
 10
0.040828
 20
-0.016662
 30
0.0045
 70
    192
  0
VERTEX
  8
72OFGO3D01_CO__GRIFF__F14
 10
0.027541
 20
-0.02072
 30
0.0045
 70
    192
  0
VERTEX
  8
72OFGO3D01_CO__GRIFF__F14
 10
0.040828
 20
-0.016662
 30
-0.0045
 70
    192
  0
VERTEX
  8
72OFGO3D01_CO__GRIFF__F14
 10
0.028481
 20
-0.024608
 30
-0.0045
 70
    192
  0
VERTEX
  8
72OFGO3D01_CO__GRIFF__F14
 10
0.042221
 20
-0.020412
 30
0.0045
 70
    192
  0
VERTEX
  8
72OFGO3D01_CO__GRIFF__F14
 10
0.028481
 20
-0.024608
 30
0.0045
 70
    192
  0
VERTEX
  8
72OFGO3D01_CO__GRIFF__F14
 10
0.042221
 20
-0.020412
 30
-0.0045
 70
    192
  0
VERTEX
  8
72OFGO3D01_CO__GRIFF__F14
 10
0.014341
 20
-0.027149
 30
0.0045
 70
    192
  0
VERTEX
  8
72OFGO3D01_CO__GRIFF__F14
 10
0.014341
 20
-0.027149
 30
-0.0045
 70
    192
  0
VERTEX
  8
72OFGO3D01_CO__GRIFF__F14
 10
0.013868
 20
-0.023177
 30
-0.0045
 70
    192
  0
VERTEX
  8
72OFGO3D01_CO__GRIFF__F14
 10
0.013868
 20
-0.023177
 30
0.0045
 70
    192
  0
VERTEX
  8
72OFGO3D01_CO__GRIFF__F14
 10
0.053542
 20
-0.011062
 30
0.0045
 70
    192
  0
VERTEX
  8
72OFGO3D01_CO__GRIFF__F14
 10
0.06
 20
-0.007486
 30
-0.0045
 70
    192
  0
VERTEX
  8
72OFGO3D01_CO__GRIFF__F14
 10
0.053542
 20
-0.011062
 30
-0.0045
 70
    192
  0
VERTEX
  8
72OFGO3D01_CO__GRIFF__F14
 10
0.06
 20
-0.007486
 30
0.0045
 70
    192
  0
VERTEX
  8
72OFGO3D01_CO__GRIFF__F14
 10
0.06
 20
0
 30
0.0045
 70
    192
  0
VERTEX
  8
72OFGO3D01_CO__GRIFF__F14
 10
0.06
 20
0
 30
-0.0045
 70
    192
  0
VERTEX
  8
72OFGO3D01_CO__GRIFF__F14
 10
0.067738
 20
-0.007315
 30
-0.0045
 70
    192
  0
VERTEX
  8
72OFGO3D01_CO__GRIFF__F14
 10
0.055368
 20
-0.01462
 30
0.0045
 70
    192
  0
VERTEX
  8
72OFGO3D01_CO__GRIFF__F14
 10
0.067738
 20
-0.007315
 30
0.0045
 70
    192
  0
VERTEX
  8
72OFGO3D01_CO__GRIFF__F14
 10
0.055368
 20
-0.01462
 30
-0.0045
 70
    192
  0
VERTEX
  8
72OFGO3D01_CO__GRIFF__F14
 10
0.0775
 20
0
 30
-0.0045
 70
    192
  0
VERTEX
  8
72OFGO3D01_CO__GRIFF__F14
 10
0.0775
 20
0
 30
0.0045
 70
    192
  0
VERTEX
  8
72OFGO3D01_CO__GRIFF__F14
 10
-0.0775
 20
0
 30
-0.0045
 70
    192
  0
VERTEX
  8
72OFGO3D01_CO__GRIFF__F14
 10
-0.067738
 20
-0.007315
 30
0.0045
 70
    192
  0
VERTEX
  8
72OFGO3D01_CO__GRIFF__F14
 10
-0.0775
 20
0
 30
0.0045
 70
    192
  0
VERTEX
  8
72OFGO3D01_CO__GRIFF__F14
 10
-0.067738
 20
-0.007315
 30
-0.0045
 70
    192
  0
VERTEX
  8
72OFGO3D01_CO__GRIFF__F14
 10
-0.06
 20
0
 30
-0.0045
 70
    192
  0
VERTEX
  8
72OFGO3D01_CO__GRIFF__F14
 10
-0.06
 20
0
 30
0.0045
 70
    192
  0
VERTEX
  8
72OFGO3D01_CO__GRIFF__F14
 10
-0.028481
 20
-0.024608
 30
-0.0045
 70
    192
  0
VERTEX
  8
72OFGO3D01_CO__GRIFF__F14
 10
-0.042221
 20
-0.020412
 30
0.0045
 70
    192
  0
VERTEX
  8
72OFGO3D01_CO__GRIFF__F14
 10
-0.042221
 20
-0.020412
 30
-0.0045
 70
    192
  0
VERTEX
  8
72OFGO3D01_CO__GRIFF__F14
 10
-0.028481
 20
-0.024608
 30
0.0045
 70
    192
  0
VERTEX
  8
72OFGO3D01_CO__GRIFF__F14
 10
-0.040828
 20
-0.016662
 30
-0.0045
 70
    192
  0
VERTEX
  8
72OFGO3D01_CO__GRIFF__F14
 10
-0.027541
 20
-0.02072
 30
0.0045
 70
    192
  0
VERTEX
  8
72OFGO3D01_CO__GRIFF__F14
 10
-0.040828
 20
-0.016662
 30
0.0045
 70
    192
  0
VERTEX
  8
72OFGO3D01_CO__GRIFF__F14
 10
-0.027541
 20
-0.02072
 30
-0.0045
 70
    192
  0
VERTEX
  8
72OFGO3D01_CO__GRIFF__F14
 10
-0.055368
 20
-0.01462
 30
0.0045
 70
    192
  0
VERTEX
  8
72OFGO3D01_CO__GRIFF__F14
 10
-0.055368
 20
-0.01462
 30
-0.0045
 70
    192
  0
VERTEX
  8
72OFGO3D01_CO__GRIFF__F14
 10
-0.053542
 20
-0.011062
 30
-0.0045
 70
    192
  0
VERTEX
  8
72OFGO3D01_CO__GRIFF__F14
 10
-0.053542
 20
-0.011062
 30
0.0045
 70
    192
  0
VERTEX
  8
72OFGO3D01_CO__GRIFF__F14
 10
-0.06
 20
-0.007486
 30
-0.0045
 70
    192
  0
VERTEX
  8
72OFGO3D01_CO__GRIFF__F14
 10
-0.06
 20
-0.007486
 30
0.0045
 70
    192
  0
VERTEX
  8
72OFGO3D01_CO__GRIFF__F14
 10
0.0
 20
0.0
 30
0.0
 70
   128
 62
  251
 71
 -1
 72
 -2
 73
 -3
  0
VERTEX
  8
72OFGO3D01_CO__GRIFF__F14
 10
0.0
 20
0.0
 30
0.0
 70
   128
 62
  251
 71
 -1
 72
  3
 73
  3
  0
VERTEX
  8
72OFGO3D01_CO__GRIFF__F14
 10
0.0
 20
0.0
 30
0.0
 70
   128
 62
  251
 71
 -3
 72
 -3
 73
 -2
  0
VERTEX
  8
72OFGO3D01_CO__GRIFF__F14
 10
0.0
 20
0.0
 30
0.0
 70
   128
 62
  251
 71
 -3
 72
 -2
 73
 -1
  0
VERTEX
  8
72OFGO3D01_CO__GRIFF__F14
 10
0.0
 20
0.0
 30
0.0
 70
   128
 62
  251
 71
 -1
 72
  4
 73
 -2
  0
VERTEX
  8
72OFGO3D01_CO__GRIFF__F14
 10
0.0
 20
0.0
 30
0.0
 70
   128
 62
  251
 71
 -1
 72
 -2
 73
 -2
  0
VERTEX
  8
72OFGO3D01_CO__GRIFF__F14
 10
0.0
 20
0.0
 30
0.0
 70
   128
 62
  251
 71
 -2
 72
 -2
 73
 -4
  0
VERTEX
  8
72OFGO3D01_CO__GRIFF__F14
 10
0.0
 20
0.0
 30
0.0
 70
   128
 62
  251
 71
 -2
 72
 -4
 73
 -1
  0
VERTEX
  8
72OFGO3D01_CO__GRIFF__F14
 10
0.0
 20
0.0
 30
0.0
 70
   128
 62
  251
 71
 -3
 72
 -4
 73
 -1
  0
VERTEX
  8
72OFGO3D01_CO__GRIFF__F14
 10
0.0
 20
0.0
 30
0.0
 70
   128
 62
  251
 71
 -3
 72
  1
 73
  1
  0
VERTEX
  8
72OFGO3D01_CO__GRIFF__F14
 10
0.0
 20
0.0
 30
0.0
 70
   128
 62
  251
 71
 -1
 72
 -1
 73
 -4
  0
VERTEX
  8
72OFGO3D01_CO__GRIFF__F14
 10
0.0
 20
0.0
 30
0.0
 70
   128
 62
  251
 71
 -1
 72
 -4
 73
 -3
  0
VERTEX
  8
72OFGO3D01_CO__GRIFF__F14
 10
0.0
 20
0.0
 30
0.0
 70
   128
 62
  251
 71
 -3
 72
  2
 73
 -4
  0
VERTEX
  8
72OFGO3D01_CO__GRIFF__F14
 10
0.0
 20
0.0
 30
0.0
 70
   128
 62
  251
 71
 -3
 72
 -4
 73
 -4
  0
VERTEX
  8
72OFGO3D01_CO__GRIFF__F14
 10
0.0
 20
0.0
 30
0.0
 70
   128
 62
  251
 71
 -4
 72
 -4
 73
 -2
  0
VERTEX
  8
72OFGO3D01_CO__GRIFF__F14
 10
0.0
 20
0.0
 30
0.0
 70
   128
 62
  251
 71
 -4
 72
 -2
 73
 -3
  0
VERTEX
  8
72OFGO3D01_CO__GRIFF__F14
 10
0.0
 20
0.0
 30
0.0
 70
   128
 62
  251
 71
 -5
 72
  6
 73
 -7
  0
VERTEX
  8
72OFGO3D01_CO__GRIFF__F14
 10
0.0
 20
0.0
 30
0.0
 70
   128
 62
  251
 71
 -5
 72
 -7
 73
 -7
  0
VERTEX
  8
72OFGO3D01_CO__GRIFF__F14
 10
0.0
 20
0.0
 30
0.0
 70
   128
 62
  251
 71
 -7
 72
 -7
 73
 -6
  0
VERTEX
  8
72OFGO3D01_CO__GRIFF__F14
 10
0.0
 20
0.0
 30
0.0
 70
   128
 62
  251
 71
 -7
 72
 -6
 73
 -5
  0
VERTEX
  8
72OFGO3D01_CO__GRIFF__F14
 10
0.0
 20
0.0
 30
0.0
 70
   128
 62
  251
 71
  5
 72
 -8
 73
 -6
  0
VERTEX
  8
72OFGO3D01_CO__GRIFF__F14
 10
0.0
 20
0.0
 30
0.0
 70
   128
 62
  251
 71
 -5
 72
 -6
 73
 -6
  0
VERTEX
  8
72OFGO3D01_CO__GRIFF__F14
 10
0.0
 20
0.0
 30
0.0
 70
   128
 62
  251
 71
 -6
 72
 -6
 73
 -8
  0
VERTEX
  8
72OFGO3D01_CO__GRIFF__F14
 10
0.0
 20
0.0
 30
0.0
 70
   128
 62
  251
 71
 -6
 72
 -8
 73
 -5
  0
VERTEX
  8
72OFGO3D01_CO__GRIFF__F14
 10
0.0
 20
0.0
 30
0.0
 70
   128
 62
  251
 71
 -7
 72
  8
 73
 -5
  0
VERTEX
  8
72OFGO3D01_CO__GRIFF__F14
 10
0.0
 20
0.0
 30
0.0
 70
   128
 62
  251
 71
 -7
 72
 -5
 73
 -5
  0
VERTEX
  8
72OFGO3D01_CO__GRIFF__F14
 10
0.0
 20
0.0
 30
0.0
 70
   128
 62
  251
 71
 -5
 72
 -5
 73
 -8
  0
VERTEX
  8
72OFGO3D01_CO__GRIFF__F14
 10
0.0
 20
0.0
 30
0.0
 70
   128
 62
  251
 71
 -5
 72
 -8
 73
 -7
  0
VERTEX
  8
72OFGO3D01_CO__GRIFF__F14
 10
0.0
 20
0.0
 30
0.0
 70
   128
 62
  251
 71
  7
 72
 -6
 73
 -8
  0
VERTEX
  8
72OFGO3D01_CO__GRIFF__F14
 10
0.0
 20
0.0
 30
0.0
 70
   128
 62
  251
 71
 -7
 72
 -8
 73
 -8
  0
VERTEX
  8
72OFGO3D01_CO__GRIFF__F14
 10
0.0
 20
0.0
 30
0.0
 70
   128
 62
  251
 71
 -8
 72
 -8
 73
 -6
  0
VERTEX
  8
72OFGO3D01_CO__GRIFF__F14
 10
0.0
 20
0.0
 30
0.0
 70
   128
 62
  251
 71
 -8
 72
 -6
 73
 -7
  0
VERTEX
  8
72OFGO3D01_CO__GRIFF__F14
 10
0.0
 20
0.0
 30
0.0
 70
   128
 62
  251
 71
 -9
 72
  10
 73
 -11
  0
VERTEX
  8
72OFGO3D01_CO__GRIFF__F14
 10
0.0
 20
0.0
 30
0.0
 70
   128
 62
  251
 71
 -9
 72
 -11
 73
 -11
  0
VERTEX
  8
72OFGO3D01_CO__GRIFF__F14
 10
0.0
 20
0.0
 30
0.0
 70
   128
 62
  251
 71
 -11
 72
 -11
 73
 -10
  0
VERTEX
  8
72OFGO3D01_CO__GRIFF__F14
 10
0.0
 20
0.0
 30
0.0
 70
   128
 62
  251
 71
 -11
 72
 -10
 73
 -9
  0
VERTEX
  8
72OFGO3D01_CO__GRIFF__F14
 10
0.0
 20
0.0
 30
0.0
 70
   128
 62
  251
 71
  9
 72
 -12
 73
 -10
  0
VERTEX
  8
72OFGO3D01_CO__GRIFF__F14
 10
0.0
 20
0.0
 30
0.0
 70
   128
 62
  251
 71
 -9
 72
 -10
 73
 -10
  0
VERTEX
  8
72OFGO3D01_CO__GRIFF__F14
 10
0.0
 20
0.0
 30
0.0
 70
   128
 62
  251
 71
 -10
 72
 -10
 73
 -12
  0
VERTEX
  8
72OFGO3D01_CO__GRIFF__F14
 10
0.0
 20
0.0
 30
0.0
 70
   128
 62
  251
 71
 -10
 72
 -12
 73
 -9
  0
VERTEX
  8
72OFGO3D01_CO__GRIFF__F14
 10
0.0
 20
0.0
 30
0.0
 70
   128
 62
  251
 71
 -11
 72
  12
 73
 -9
  0
VERTEX
  8
72OFGO3D01_CO__GRIFF__F14
 10
0.0
 20
0.0
 30
0.0
 70
   128
 62
  251
 71
 -11
 72
 -9
 73
 -9
  0
VERTEX
  8
72OFGO3D01_CO__GRIFF__F14
 10
0.0
 20
0.0
 30
0.0
 70
   128
 62
  251
 71
 -9
 72
 -9
 73
 -12
  0
VERTEX
  8
72OFGO3D01_CO__GRIFF__F14
 10
0.0
 20
0.0
 30
0.0
 70
   128
 62
  251
 71
 -9
 72
 -12
 73
 -11
  0
VERTEX
  8
72OFGO3D01_CO__GRIFF__F14
 10
0.0
 20
0.0
 30
0.0
 70
   128
 62
  251
 71
  11
 72
 -10
 73
 -12
  0
VERTEX
  8
72OFGO3D01_CO__GRIFF__F14
 10
0.0
 20
0.0
 30
0.0
 70
   128
 62
  251
 71
 -11
 72
 -12
 73
 -12
  0
VERTEX
  8
72OFGO3D01_CO__GRIFF__F14
 10
0.0
 20
0.0
 30
0.0
 70
   128
 62
  251
 71
 -12
 72
 -12
 73
 -10
  0
VERTEX
  8
72OFGO3D01_CO__GRIFF__F14
 10
0.0
 20
0.0
 30
0.0
 70
   128
 62
  251
 71
 -12
 72
 -10
 73
 -11
  0
VERTEX
  8
72OFGO3D01_CO__GRIFF__F14
 10
0.0
 20
0.0
 30
0.0
 70
   128
 62
  251
 71
 -13
 72
  14
 73
 -15
  0
VERTEX
  8
72OFGO3D01_CO__GRIFF__F14
 10
0.0
 20
0.0
 30
0.0
 70
   128
 62
  251
 71
 -13
 72
 -15
 73
 -15
  0
VERTEX
  8
72OFGO3D01_CO__GRIFF__F14
 10
0.0
 20
0.0
 30
0.0
 70
   128
 62
  251
 71
 -15
 72
 -15
 73
 -14
  0
VERTEX
  8
72OFGO3D01_CO__GRIFF__F14
 10
0.0
 20
0.0
 30
0.0
 70
   128
 62
  251
 71
 -15
 72
 -14
 73
 -13
  0
VERTEX
  8
72OFGO3D01_CO__GRIFF__F14
 10
0.0
 20
0.0
 30
0.0
 70
   128
 62
  251
 71
  13
 72
 -16
 73
 -14
  0
VERTEX
  8
72OFGO3D01_CO__GRIFF__F14
 10
0.0
 20
0.0
 30
0.0
 70
   128
 62
  251
 71
 -13
 72
 -14
 73
 -14
  0
VERTEX
  8
72OFGO3D01_CO__GRIFF__F14
 10
0.0
 20
0.0
 30
0.0
 70
   128
 62
  251
 71
 -14
 72
 -14
 73
 -16
  0
VERTEX
  8
72OFGO3D01_CO__GRIFF__F14
 10
0.0
 20
0.0
 30
0.0
 70
   128
 62
  251
 71
 -14
 72
 -16
 73
 -13
  0
VERTEX
  8
72OFGO3D01_CO__GRIFF__F14
 10
0.0
 20
0.0
 30
0.0
 70
   128
 62
  251
 71
 -15
 72
  16
 73
 -13
  0
VERTEX
  8
72OFGO3D01_CO__GRIFF__F14
 10
0.0
 20
0.0
 30
0.0
 70
   128
 62
  251
 71
 -15
 72
 -13
 73
 -13
  0
VERTEX
  8
72OFGO3D01_CO__GRIFF__F14
 10
0.0
 20
0.0
 30
0.0
 70
   128
 62
  251
 71
 -13
 72
 -13
 73
 -16
  0
VERTEX
  8
72OFGO3D01_CO__GRIFF__F14
 10
0.0
 20
0.0
 30
0.0
 70
   128
 62
  251
 71
 -13
 72
 -16
 73
 -15
  0
VERTEX
  8
72OFGO3D01_CO__GRIFF__F14
 10
0.0
 20
0.0
 30
0.0
 70
   128
 62
  251
 71
  15
 72
 -14
 73
 -16
  0
VERTEX
  8
72OFGO3D01_CO__GRIFF__F14
 10
0.0
 20
0.0
 30
0.0
 70
   128
 62
  251
 71
 -15
 72
 -16
 73
 -16
  0
VERTEX
  8
72OFGO3D01_CO__GRIFF__F14
 10
0.0
 20
0.0
 30
0.0
 70
   128
 62
  251
 71
 -16
 72
 -16
 73
 -14
  0
VERTEX
  8
72OFGO3D01_CO__GRIFF__F14
 10
0.0
 20
0.0
 30
0.0
 70
   128
 62
  251
 71
 -16
 72
 -14
 73
 -15
  0
VERTEX
  8
72OFGO3D01_CO__GRIFF__F14
 10
0.0
 20
0.0
 30
0.0
 70
   128
 62
  251
 71
 -1
 72
  17
 73
 -4
  0
VERTEX
  8
72OFGO3D01_CO__GRIFF__F14
 10
0.0
 20
0.0
 30
0.0
 70
   128
 62
  251
 71
 -1
 72
 -4
 73
 -4
  0
VERTEX
  8
72OFGO3D01_CO__GRIFF__F14
 10
0.0
 20
0.0
 30
0.0
 70
   128
 62
  251
 71
 -4
 72
 -4
 73
 -17
  0
VERTEX
  8
72OFGO3D01_CO__GRIFF__F14
 10
0.0
 20
0.0
 30
0.0
 70
   128
 62
  251
 71
 -4
 72
 -17
 73
 -1
  0
VERTEX
  8
72OFGO3D01_CO__GRIFF__F14
 10
0.0
 20
0.0
 30
0.0
 70
   128
 62
  251
 71
  1
 72
 -18
 73
 -17
  0
VERTEX
  8
72OFGO3D01_CO__GRIFF__F14
 10
0.0
 20
0.0
 30
0.0
 70
   128
 62
  251
 71
 -1
 72
 -17
 73
 -17
  0
VERTEX
  8
72OFGO3D01_CO__GRIFF__F14
 10
0.0
 20
0.0
 30
0.0
 70
   128
 62
  251
 71
 -17
 72
 -17
 73
 -18
  0
VERTEX
  8
72OFGO3D01_CO__GRIFF__F14
 10
0.0
 20
0.0
 30
0.0
 70
   128
 62
  251
 71
 -17
 72
 -18
 73
 -1
  0
VERTEX
  8
72OFGO3D01_CO__GRIFF__F14
 10
0.0
 20
0.0
 30
0.0
 70
   128
 62
  251
 71
 -4
 72
  18
 73
 -1
  0
VERTEX
  8
72OFGO3D01_CO__GRIFF__F14
 10
0.0
 20
0.0
 30
0.0
 70
   128
 62
  251
 71
 -4
 72
 -1
 73
 -1
  0
VERTEX
  8
72OFGO3D01_CO__GRIFF__F14
 10
0.0
 20
0.0
 30
0.0
 70
   128
 62
  251
 71
 -1
 72
 -1
 73
 -18
  0
VERTEX
  8
72OFGO3D01_CO__GRIFF__F14
 10
0.0
 20
0.0
 30
0.0
 70
   128
 62
  251
 71
 -1
 72
 -18
 73
 -4
  0
VERTEX
  8
72OFGO3D01_CO__GRIFF__F14
 10
0.0
 20
0.0
 30
0.0
 70
   128
 62
  251
 71
  4
 72
 -17
 73
 -18
  0
VERTEX
  8
72OFGO3D01_CO__GRIFF__F14
 10
0.0
 20
0.0
 30
0.0
 70
   128
 62
  251
 71
 -4
 72
 -18
 73
 -18
  0
VERTEX
  8
72OFGO3D01_CO__GRIFF__F14
 10
0.0
 20
0.0
 30
0.0
 70
   128
 62
  251
 71
 -18
 72
 -18
 73
 -17
  0
VERTEX
  8
72OFGO3D01_CO__GRIFF__F14
 10
0.0
 20
0.0
 30
0.0
 70
   128
 62
  251
 71
 -18
 72
 -17
 73
 -4
  0
VERTEX
  8
72OFGO3D01_CO__GRIFF__F14
 10
0.0
 20
0.0
 30
0.0
 70
   128
 62
  251
 71
 -19
 72
 -6
 73
 -8
  0
VERTEX
  8
72OFGO3D01_CO__GRIFF__F14
 10
0.0
 20
0.0
 30
0.0
 70
   128
 62
  251
 71
 -19
 72
  8
 73
  8
  0
VERTEX
  8
72OFGO3D01_CO__GRIFF__F14
 10
0.0
 20
0.0
 30
0.0
 70
   128
 62
  251
 71
 -8
 72
 -8
 73
 -6
  0
VERTEX
  8
72OFGO3D01_CO__GRIFF__F14
 10
0.0
 20
0.0
 30
0.0
 70
   128
 62
  251
 71
 -8
 72
 -6
 73
 -19
  0
VERTEX
  8
72OFGO3D01_CO__GRIFF__F14
 10
0.0
 20
0.0
 30
0.0
 70
   128
 62
  251
 71
 -19
 72
  20
 73
 -6
  0
VERTEX
  8
72OFGO3D01_CO__GRIFF__F14
 10
0.0
 20
0.0
 30
0.0
 70
   128
 62
  251
 71
 -19
 72
 -6
 73
 -6
  0
VERTEX
  8
72OFGO3D01_CO__GRIFF__F14
 10
0.0
 20
0.0
 30
0.0
 70
   128
 62
  251
 71
 -6
 72
 -6
 73
 -20
  0
VERTEX
  8
72OFGO3D01_CO__GRIFF__F14
 10
0.0
 20
0.0
 30
0.0
 70
   128
 62
  251
 71
 -6
 72
 -20
 73
 -19
  0
VERTEX
  8
72OFGO3D01_CO__GRIFF__F14
 10
0.0
 20
0.0
 30
0.0
 70
   128
 62
  251
 71
 -8
 72
 -20
 73
 -19
  0
VERTEX
  8
72OFGO3D01_CO__GRIFF__F14
 10
0.0
 20
0.0
 30
0.0
 70
   128
 62
  251
 71
 -8
 72
  19
 73
  19
  0
VERTEX
  8
72OFGO3D01_CO__GRIFF__F14
 10
0.0
 20
0.0
 30
0.0
 70
   128
 62
  251
 71
 -19
 72
 -19
 73
 -20
  0
VERTEX
  8
72OFGO3D01_CO__GRIFF__F14
 10
0.0
 20
0.0
 30
0.0
 70
   128
 62
  251
 71
 -19
 72
 -20
 73
 -8
  0
VERTEX
  8
72OFGO3D01_CO__GRIFF__F14
 10
0.0
 20
0.0
 30
0.0
 70
   128
 62
  251
 71
 -8
 72
  6
 73
 -20
  0
VERTEX
  8
72OFGO3D01_CO__GRIFF__F14
 10
0.0
 20
0.0
 30
0.0
 70
   128
 62
  251
 71
 -8
 72
 -20
 73
 -20
  0
VERTEX
  8
72OFGO3D01_CO__GRIFF__F14
 10
0.0
 20
0.0
 30
0.0
 70
   128
 62
  251
 71
 -20
 72
 -20
 73
 -6
  0
VERTEX
  8
72OFGO3D01_CO__GRIFF__F14
 10
0.0
 20
0.0
 30
0.0
 70
   128
 62
  251
 71
 -20
 72
 -6
 73
 -8
  0
VERTEX
  8
72OFGO3D01_CO__GRIFF__F14
 10
0.0
 20
0.0
 30
0.0
 70
   128
 62
  251
 71
 -13
 72
 -17
 73
 -18
  0
VERTEX
  8
72OFGO3D01_CO__GRIFF__F14
 10
0.0
 20
0.0
 30
0.0
 70
   128
 62
  251
 71
 -13
 72
  18
 73
  18
  0
VERTEX
  8
72OFGO3D01_CO__GRIFF__F14
 10
0.0
 20
0.0
 30
0.0
 70
   128
 62
  251
 71
 -18
 72
 -18
 73
 -17
  0
VERTEX
  8
72OFGO3D01_CO__GRIFF__F14
 10
0.0
 20
0.0
 30
0.0
 70
   128
 62
  251
 71
 -18
 72
 -17
 73
 -13
  0
VERTEX
  8
72OFGO3D01_CO__GRIFF__F14
 10
0.0
 20
0.0
 30
0.0
 70
   128
 62
  251
 71
 -13
 72
  15
 73
 -17
  0
VERTEX
  8
72OFGO3D01_CO__GRIFF__F14
 10
0.0
 20
0.0
 30
0.0
 70
   128
 62
  251
 71
 -13
 72
 -17
 73
 -17
  0
VERTEX
  8
72OFGO3D01_CO__GRIFF__F14
 10
0.0
 20
0.0
 30
0.0
 70
   128
 62
  251
 71
 -17
 72
 -17
 73
 -15
  0
VERTEX
  8
72OFGO3D01_CO__GRIFF__F14
 10
0.0
 20
0.0
 30
0.0
 70
   128
 62
  251
 71
 -17
 72
 -15
 73
 -13
  0
VERTEX
  8
72OFGO3D01_CO__GRIFF__F14
 10
0.0
 20
0.0
 30
0.0
 70
   128
 62
  251
 71
 -18
 72
 -15
 73
 -13
  0
VERTEX
  8
72OFGO3D01_CO__GRIFF__F14
 10
0.0
 20
0.0
 30
0.0
 70
   128
 62
  251
 71
 -18
 72
  13
 73
  13
  0
VERTEX
  8
72OFGO3D01_CO__GRIFF__F14
 10
0.0
 20
0.0
 30
0.0
 70
   128
 62
  251
 71
 -13
 72
 -13
 73
 -15
  0
VERTEX
  8
72OFGO3D01_CO__GRIFF__F14
 10
0.0
 20
0.0
 30
0.0
 70
   128
 62
  251
 71
 -13
 72
 -15
 73
 -18
  0
VERTEX
  8
72OFGO3D01_CO__GRIFF__F14
 10
0.0
 20
0.0
 30
0.0
 70
   128
 62
  251
 71
 -18
 72
  17
 73
 -15
  0
VERTEX
  8
72OFGO3D01_CO__GRIFF__F14
 10
0.0
 20
0.0
 30
0.0
 70
   128
 62
  251
 71
 -18
 72
 -15
 73
 -15
  0
VERTEX
  8
72OFGO3D01_CO__GRIFF__F14
 10
0.0
 20
0.0
 30
0.0
 70
   128
 62
  251
 71
 -15
 72
 -15
 73
 -17
  0
VERTEX
  8
72OFGO3D01_CO__GRIFF__F14
 10
0.0
 20
0.0
 30
0.0
 70
   128
 62
  251
 71
 -15
 72
 -17
 73
 -18
  0
VERTEX
  8
72OFGO3D01_CO__GRIFF__F14
 10
0.0
 20
0.0
 30
0.0
 70
   128
 62
  251
 71
 -19
 72
  11
 73
 -20
  0
VERTEX
  8
72OFGO3D01_CO__GRIFF__F14
 10
0.0
 20
0.0
 30
0.0
 70
   128
 62
  251
 71
 -19
 72
 -20
 73
 -20
  0
VERTEX
  8
72OFGO3D01_CO__GRIFF__F14
 10
0.0
 20
0.0
 30
0.0
 70
   128
 62
  251
 71
 -20
 72
 -20
 73
 -11
  0
VERTEX
  8
72OFGO3D01_CO__GRIFF__F14
 10
0.0
 20
0.0
 30
0.0
 70
   128
 62
  251
 71
 -20
 72
 -11
 73
 -19
  0
VERTEX
  8
72OFGO3D01_CO__GRIFF__F14
 10
0.0
 20
0.0
 30
0.0
 70
   128
 62
  251
 71
  19
 72
 -9
 73
 -11
  0
VERTEX
  8
72OFGO3D01_CO__GRIFF__F14
 10
0.0
 20
0.0
 30
0.0
 70
   128
 62
  251
 71
 -19
 72
 -11
 73
 -11
  0
VERTEX
  8
72OFGO3D01_CO__GRIFF__F14
 10
0.0
 20
0.0
 30
0.0
 70
   128
 62
  251
 71
 -11
 72
 -11
 73
 -9
  0
VERTEX
  8
72OFGO3D01_CO__GRIFF__F14
 10
0.0
 20
0.0
 30
0.0
 70
   128
 62
  251
 71
 -11
 72
 -9
 73
 -19
  0
VERTEX
  8
72OFGO3D01_CO__GRIFF__F14
 10
0.0
 20
0.0
 30
0.0
 70
   128
 62
  251
 71
 -20
 72
  9
 73
 -19
  0
VERTEX
  8
72OFGO3D01_CO__GRIFF__F14
 10
0.0
 20
0.0
 30
0.0
 70
   128
 62
  251
 71
 -20
 72
 -19
 73
 -19
  0
VERTEX
  8
72OFGO3D01_CO__GRIFF__F14
 10
0.0
 20
0.0
 30
0.0
 70
   128
 62
  251
 71
 -19
 72
 -19
 73
 -9
  0
VERTEX
  8
72OFGO3D01_CO__GRIFF__F14
 10
0.0
 20
0.0
 30
0.0
 70
   128
 62
  251
 71
 -19
 72
 -9
 73
 -20
  0
VERTEX
  8
72OFGO3D01_CO__GRIFF__F14
 10
0.0
 20
0.0
 30
0.0
 70
   128
 62
  251
 71
  20
 72
 -11
 73
 -9
  0
VERTEX
  8
72OFGO3D01_CO__GRIFF__F14
 10
0.0
 20
0.0
 30
0.0
 70
   128
 62
  251
 71
 -20
 72
 -9
 73
 -9
  0
VERTEX
  8
72OFGO3D01_CO__GRIFF__F14
 10
0.0
 20
0.0
 30
0.0
 70
   128
 62
  251
 71
 -9
 72
 -9
 73
 -11
  0
VERTEX
  8
72OFGO3D01_CO__GRIFF__F14
 10
0.0
 20
0.0
 30
0.0
 70
   128
 62
  251
 71
 -9
 72
 -11
 73
 -20
  0
VERTEX
  8
72OFGO3D01_CO__GRIFF__F14
 10
0.0
 20
0.0
 30
0.0
 70
   128
 62
  251
 71
 -21
 72
  22
 73
 -23
  0
VERTEX
  8
72OFGO3D01_CO__GRIFF__F14
 10
0.0
 20
0.0
 30
0.0
 70
   128
 62
  251
 71
 -21
 72
 -23
 73
 -23
  0
VERTEX
  8
72OFGO3D01_CO__GRIFF__F14
 10
0.0
 20
0.0
 30
0.0
 70
   128
 62
  251
 71
 -23
 72
 -23
 73
 -22
  0
VERTEX
  8
72OFGO3D01_CO__GRIFF__F14
 10
0.0
 20
0.0
 30
0.0
 70
   128
 62
  251
 71
 -23
 72
 -22
 73
 -21
  0
VERTEX
  8
72OFGO3D01_CO__GRIFF__F14
 10
0.0
 20
0.0
 30
0.0
 70
   128
 62
  251
 71
  21
 72
 -24
 73
 -22
  0
VERTEX
  8
72OFGO3D01_CO__GRIFF__F14
 10
0.0
 20
0.0
 30
0.0
 70
   128
 62
  251
 71
 -21
 72
 -22
 73
 -22
  0
VERTEX
  8
72OFGO3D01_CO__GRIFF__F14
 10
0.0
 20
0.0
 30
0.0
 70
   128
 62
  251
 71
 -22
 72
 -22
 73
 -24
  0
VERTEX
  8
72OFGO3D01_CO__GRIFF__F14
 10
0.0
 20
0.0
 30
0.0
 70
   128
 62
  251
 71
 -22
 72
 -24
 73
 -21
  0
VERTEX
  8
72OFGO3D01_CO__GRIFF__F14
 10
0.0
 20
0.0
 30
0.0
 70
   128
 62
  251
 71
 -23
 72
  24
 73
 -21
  0
VERTEX
  8
72OFGO3D01_CO__GRIFF__F14
 10
0.0
 20
0.0
 30
0.0
 70
   128
 62
  251
 71
 -23
 72
 -21
 73
 -21
  0
VERTEX
  8
72OFGO3D01_CO__GRIFF__F14
 10
0.0
 20
0.0
 30
0.0
 70
   128
 62
  251
 71
 -21
 72
 -21
 73
 -24
  0
VERTEX
  8
72OFGO3D01_CO__GRIFF__F14
 10
0.0
 20
0.0
 30
0.0
 70
   128
 62
  251
 71
 -21
 72
 -24
 73
 -23
  0
VERTEX
  8
72OFGO3D01_CO__GRIFF__F14
 10
0.0
 20
0.0
 30
0.0
 70
   128
 62
  251
 71
  23
 72
 -22
 73
 -24
  0
VERTEX
  8
72OFGO3D01_CO__GRIFF__F14
 10
0.0
 20
0.0
 30
0.0
 70
   128
 62
  251
 71
 -23
 72
 -24
 73
 -24
  0
VERTEX
  8
72OFGO3D01_CO__GRIFF__F14
 10
0.0
 20
0.0
 30
0.0
 70
   128
 62
  251
 71
 -24
 72
 -24
 73
 -22
  0
VERTEX
  8
72OFGO3D01_CO__GRIFF__F14
 10
0.0
 20
0.0
 30
0.0
 70
   128
 62
  251
 71
 -24
 72
 -22
 73
 -23
  0
VERTEX
  8
72OFGO3D01_CO__GRIFF__F14
 10
0.0
 20
0.0
 30
0.0
 70
   128
 62
  251
 71
 -25
 72
 -22
 73
 -24
  0
VERTEX
  8
72OFGO3D01_CO__GRIFF__F14
 10
0.0
 20
0.0
 30
0.0
 70
   128
 62
  251
 71
 -25
 72
  24
 73
  24
  0
VERTEX
  8
72OFGO3D01_CO__GRIFF__F14
 10
0.0
 20
0.0
 30
0.0
 70
   128
 62
  251
 71
 -24
 72
 -24
 73
 -22
  0
VERTEX
  8
72OFGO3D01_CO__GRIFF__F14
 10
0.0
 20
0.0
 30
0.0
 70
   128
 62
  251
 71
 -24
 72
 -22
 73
 -25
  0
VERTEX
  8
72OFGO3D01_CO__GRIFF__F14
 10
0.0
 20
0.0
 30
0.0
 70
   128
 62
  251
 71
  25
 72
  26
 73
 -22
  0
VERTEX
  8
72OFGO3D01_CO__GRIFF__F14
 10
0.0
 20
0.0
 30
0.0
 70
   128
 62
  251
 71
 -25
 72
 -22
 73
 -22
  0
VERTEX
  8
72OFGO3D01_CO__GRIFF__F14
 10
0.0
 20
0.0
 30
0.0
 70
   128
 62
  251
 71
 -22
 72
 -22
 73
 -26
  0
VERTEX
  8
72OFGO3D01_CO__GRIFF__F14
 10
0.0
 20
0.0
 30
0.0
 70
   128
 62
  251
 71
 -22
 72
 -26
 73
 -25
  0
VERTEX
  8
72OFGO3D01_CO__GRIFF__F14
 10
0.0
 20
0.0
 30
0.0
 70
   128
 62
  251
 71
 -24
 72
  26
 73
 -25
  0
VERTEX
  8
72OFGO3D01_CO__GRIFF__F14
 10
0.0
 20
0.0
 30
0.0
 70
   128
 62
  251
 71
 -24
 72
  25
 73
  25
  0
VERTEX
  8
72OFGO3D01_CO__GRIFF__F14
 10
0.0
 20
0.0
 30
0.0
 70
   128
 62
  251
 71
 -25
 72
 -25
 73
 -26
  0
VERTEX
  8
72OFGO3D01_CO__GRIFF__F14
 10
0.0
 20
0.0
 30
0.0
 70
   128
 62
  251
 71
 -25
 72
 -26
 73
 -24
  0
VERTEX
  8
72OFGO3D01_CO__GRIFF__F14
 10
0.0
 20
0.0
 30
0.0
 70
   128
 62
  251
 71
 -24
 72
  22
 73
 -26
  0
VERTEX
  8
72OFGO3D01_CO__GRIFF__F14
 10
0.0
 20
0.0
 30
0.0
 70
   128
 62
  251
 71
 -24
 72
 -26
 73
 -26
  0
VERTEX
  8
72OFGO3D01_CO__GRIFF__F14
 10
0.0
 20
0.0
 30
0.0
 70
   128
 62
  251
 71
 -26
 72
 -26
 73
 -22
  0
VERTEX
  8
72OFGO3D01_CO__GRIFF__F14
 10
0.0
 20
0.0
 30
0.0
 70
   128
 62
  251
 71
 -26
 72
 -22
 73
 -24
  0
VERTEX
  8
72OFGO3D01_CO__GRIFF__F14
 10
0.0
 20
0.0
 30
0.0
 70
   128
 62
  251
 71
 -27
 72
  28
 73
 -29
  0
VERTEX
  8
72OFGO3D01_CO__GRIFF__F14
 10
0.0
 20
0.0
 30
0.0
 70
   128
 62
  251
 71
 -27
 72
 -29
 73
 -29
  0
VERTEX
  8
72OFGO3D01_CO__GRIFF__F14
 10
0.0
 20
0.0
 30
0.0
 70
   128
 62
  251
 71
 -29
 72
 -29
 73
 -28
  0
VERTEX
  8
72OFGO3D01_CO__GRIFF__F14
 10
0.0
 20
0.0
 30
0.0
 70
   128
 62
  251
 71
 -29
 72
 -28
 73
 -27
  0
VERTEX
  8
72OFGO3D01_CO__GRIFF__F14
 10
0.0
 20
0.0
 30
0.0
 70
   128
 62
  251
 71
  27
 72
 -30
 73
 -28
  0
VERTEX
  8
72OFGO3D01_CO__GRIFF__F14
 10
0.0
 20
0.0
 30
0.0
 70
   128
 62
  251
 71
 -27
 72
 -28
 73
 -28
  0
VERTEX
  8
72OFGO3D01_CO__GRIFF__F14
 10
0.0
 20
0.0
 30
0.0
 70
   128
 62
  251
 71
 -28
 72
 -28
 73
 -30
  0
VERTEX
  8
72OFGO3D01_CO__GRIFF__F14
 10
0.0
 20
0.0
 30
0.0
 70
   128
 62
  251
 71
 -28
 72
 -30
 73
 -27
  0
VERTEX
  8
72OFGO3D01_CO__GRIFF__F14
 10
0.0
 20
0.0
 30
0.0
 70
   128
 62
  251
 71
 -29
 72
  30
 73
 -27
  0
VERTEX
  8
72OFGO3D01_CO__GRIFF__F14
 10
0.0
 20
0.0
 30
0.0
 70
   128
 62
  251
 71
 -29
 72
 -27
 73
 -27
  0
VERTEX
  8
72OFGO3D01_CO__GRIFF__F14
 10
0.0
 20
0.0
 30
0.0
 70
   128
 62
  251
 71
 -27
 72
 -27
 73
 -30
  0
VERTEX
  8
72OFGO3D01_CO__GRIFF__F14
 10
0.0
 20
0.0
 30
0.0
 70
   128
 62
  251
 71
 -27
 72
 -30
 73
 -29
  0
VERTEX
  8
72OFGO3D01_CO__GRIFF__F14
 10
0.0
 20
0.0
 30
0.0
 70
   128
 62
  251
 71
  29
 72
 -28
 73
 -30
  0
VERTEX
  8
72OFGO3D01_CO__GRIFF__F14
 10
0.0
 20
0.0
 30
0.0
 70
   128
 62
  251
 71
 -29
 72
 -30
 73
 -30
  0
VERTEX
  8
72OFGO3D01_CO__GRIFF__F14
 10
0.0
 20
0.0
 30
0.0
 70
   128
 62
  251
 71
 -30
 72
 -30
 73
 -28
  0
VERTEX
  8
72OFGO3D01_CO__GRIFF__F14
 10
0.0
 20
0.0
 30
0.0
 70
   128
 62
  251
 71
 -30
 72
 -28
 73
 -29
  0
VERTEX
  8
72OFGO3D01_CO__GRIFF__F14
 10
0.0
 20
0.0
 30
0.0
 70
   128
 62
  251
 71
 -10
 72
  23
 73
 -12
  0
VERTEX
  8
72OFGO3D01_CO__GRIFF__F14
 10
0.0
 20
0.0
 30
0.0
 70
   128
 62
  251
 71
 -10
 72
 -12
 73
 -12
  0
VERTEX
  8
72OFGO3D01_CO__GRIFF__F14
 10
0.0
 20
0.0
 30
0.0
 70
   128
 62
  251
 71
 -12
 72
 -12
 73
 -23
  0
VERTEX
  8
72OFGO3D01_CO__GRIFF__F14
 10
0.0
 20
0.0
 30
0.0
 70
   128
 62
  251
 71
 -12
 72
 -23
 73
 -10
  0
VERTEX
  8
72OFGO3D01_CO__GRIFF__F14
 10
0.0
 20
0.0
 30
0.0
 70
   128
 62
  251
 71
  10
 72
 -21
 73
 -23
  0
VERTEX
  8
72OFGO3D01_CO__GRIFF__F14
 10
0.0
 20
0.0
 30
0.0
 70
   128
 62
  251
 71
 -10
 72
 -23
 73
 -23
  0
VERTEX
  8
72OFGO3D01_CO__GRIFF__F14
 10
0.0
 20
0.0
 30
0.0
 70
   128
 62
  251
 71
 -23
 72
 -23
 73
 -21
  0
VERTEX
  8
72OFGO3D01_CO__GRIFF__F14
 10
0.0
 20
0.0
 30
0.0
 70
   128
 62
  251
 71
 -23
 72
 -21
 73
 -10
  0
VERTEX
  8
72OFGO3D01_CO__GRIFF__F14
 10
0.0
 20
0.0
 30
0.0
 70
   128
 62
  251
 71
 -12
 72
  21
 73
 -10
  0
VERTEX
  8
72OFGO3D01_CO__GRIFF__F14
 10
0.0
 20
0.0
 30
0.0
 70
   128
 62
  251
 71
 -12
 72
 -10
 73
 -10
  0
VERTEX
  8
72OFGO3D01_CO__GRIFF__F14
 10
0.0
 20
0.0
 30
0.0
 70
   128
 62
  251
 71
 -10
 72
 -10
 73
 -21
  0
VERTEX
  8
72OFGO3D01_CO__GRIFF__F14
 10
0.0
 20
0.0
 30
0.0
 70
   128
 62
  251
 71
 -10
 72
 -21
 73
 -12
  0
VERTEX
  8
72OFGO3D01_CO__GRIFF__F14
 10
0.0
 20
0.0
 30
0.0
 70
   128
 62
  251
 71
  12
 72
 -23
 73
 -21
  0
VERTEX
  8
72OFGO3D01_CO__GRIFF__F14
 10
0.0
 20
0.0
 30
0.0
 70
   128
 62
  251
 71
 -12
 72
 -21
 73
 -21
  0
VERTEX
  8
72OFGO3D01_CO__GRIFF__F14
 10
0.0
 20
0.0
 30
0.0
 70
   128
 62
  251
 71
 -21
 72
 -21
 73
 -23
  0
VERTEX
  8
72OFGO3D01_CO__GRIFF__F14
 10
0.0
 20
0.0
 30
0.0
 70
   128
 62
  251
 71
 -21
 72
 -23
 73
 -12
  0
VERTEX
  8
72OFGO3D01_CO__GRIFF__F14
 10
0.0
 20
0.0
 30
0.0
 70
   128
 62
  251
 71
 -16
 72
  28
 73
 -14
  0
VERTEX
  8
72OFGO3D01_CO__GRIFF__F14
 10
0.0
 20
0.0
 30
0.0
 70
   128
 62
  251
 71
 -16
 72
 -14
 73
 -14
  0
VERTEX
  8
72OFGO3D01_CO__GRIFF__F14
 10
0.0
 20
0.0
 30
0.0
 70
   128
 62
  251
 71
 -14
 72
 -14
 73
 -28
  0
VERTEX
  8
72OFGO3D01_CO__GRIFF__F14
 10
0.0
 20
0.0
 30
0.0
 70
   128
 62
  251
 71
 -14
 72
 -28
 73
 -16
  0
VERTEX
  8
72OFGO3D01_CO__GRIFF__F14
 10
0.0
 20
0.0
 30
0.0
 70
   128
 62
  251
 71
  16
 72
 -30
 73
 -28
  0
VERTEX
  8
72OFGO3D01_CO__GRIFF__F14
 10
0.0
 20
0.0
 30
0.0
 70
   128
 62
  251
 71
 -16
 72
 -28
 73
 -28
  0
VERTEX
  8
72OFGO3D01_CO__GRIFF__F14
 10
0.0
 20
0.0
 30
0.0
 70
   128
 62
  251
 71
 -28
 72
 -28
 73
 -30
  0
VERTEX
  8
72OFGO3D01_CO__GRIFF__F14
 10
0.0
 20
0.0
 30
0.0
 70
   128
 62
  251
 71
 -28
 72
 -30
 73
 -16
  0
VERTEX
  8
72OFGO3D01_CO__GRIFF__F14
 10
0.0
 20
0.0
 30
0.0
 70
   128
 62
  251
 71
 -14
 72
  30
 73
 -16
  0
VERTEX
  8
72OFGO3D01_CO__GRIFF__F14
 10
0.0
 20
0.0
 30
0.0
 70
   128
 62
  251
 71
 -14
 72
 -16
 73
 -16
  0
VERTEX
  8
72OFGO3D01_CO__GRIFF__F14
 10
0.0
 20
0.0
 30
0.0
 70
   128
 62
  251
 71
 -16
 72
 -16
 73
 -30
  0
VERTEX
  8
72OFGO3D01_CO__GRIFF__F14
 10
0.0
 20
0.0
 30
0.0
 70
   128
 62
  251
 71
 -16
 72
 -30
 73
 -14
  0
VERTEX
  8
72OFGO3D01_CO__GRIFF__F14
 10
0.0
 20
0.0
 30
0.0
 70
   128
 62
  251
 71
  14
 72
 -28
 73
 -30
  0
VERTEX
  8
72OFGO3D01_CO__GRIFF__F14
 10
0.0
 20
0.0
 30
0.0
 70
   128
 62
  251
 71
 -14
 72
 -30
 73
 -30
  0
VERTEX
  8
72OFGO3D01_CO__GRIFF__F14
 10
0.0
 20
0.0
 30
0.0
 70
   128
 62
  251
 71
 -30
 72
 -30
 73
 -28
  0
VERTEX
  8
72OFGO3D01_CO__GRIFF__F14
 10
0.0
 20
0.0
 30
0.0
 70
   128
 62
  251
 71
 -30
 72
 -28
 73
 -14
  0
VERTEX
  8
72OFGO3D01_CO__GRIFF__F14
 10
0.0
 20
0.0
 30
0.0
 70
   128
 62
  251
 71
 -29
 72
  31
 73
 -27
  0
VERTEX
  8
72OFGO3D01_CO__GRIFF__F14
 10
0.0
 20
0.0
 30
0.0
 70
   128
 62
  251
 71
 -29
 72
 -27
 73
 -27
  0
VERTEX
  8
72OFGO3D01_CO__GRIFF__F14
 10
0.0
 20
0.0
 30
0.0
 70
   128
 62
  251
 71
 -27
 72
 -27
 73
 -31
  0
VERTEX
  8
72OFGO3D01_CO__GRIFF__F14
 10
0.0
 20
0.0
 30
0.0
 70
   128
 62
  251
 71
 -27
 72
 -31
 73
 -29
  0
VERTEX
  8
72OFGO3D01_CO__GRIFF__F14
 10
0.0
 20
0.0
 30
0.0
 70
   128
 62
  251
 71
  29
 72
  32
 73
 -31
  0
VERTEX
  8
72OFGO3D01_CO__GRIFF__F14
 10
0.0
 20
0.0
 30
0.0
 70
   128
 62
  251
 71
 -29
 72
 -31
 73
 -31
  0
VERTEX
  8
72OFGO3D01_CO__GRIFF__F14
 10
0.0
 20
0.0
 30
0.0
 70
   128
 62
  251
 71
 -31
 72
 -31
 73
 -32
  0
VERTEX
  8
72OFGO3D01_CO__GRIFF__F14
 10
0.0
 20
0.0
 30
0.0
 70
   128
 62
  251
 71
 -31
 72
 -32
 73
 -29
  0
VERTEX
  8
72OFGO3D01_CO__GRIFF__F14
 10
0.0
 20
0.0
 30
0.0
 70
   128
 62
  251
 71
 -27
 72
  32
 73
 -29
  0
VERTEX
  8
72OFGO3D01_CO__GRIFF__F14
 10
0.0
 20
0.0
 30
0.0
 70
   128
 62
  251
 71
 -27
 72
 -29
 73
 -29
  0
VERTEX
  8
72OFGO3D01_CO__GRIFF__F14
 10
0.0
 20
0.0
 30
0.0
 70
   128
 62
  251
 71
 -29
 72
 -29
 73
 -32
  0
VERTEX
  8
72OFGO3D01_CO__GRIFF__F14
 10
0.0
 20
0.0
 30
0.0
 70
   128
 62
  251
 71
 -29
 72
 -32
 73
 -27
  0
VERTEX
  8
72OFGO3D01_CO__GRIFF__F14
 10
0.0
 20
0.0
 30
0.0
 70
   128
 62
  251
 71
  27
 72
  31
 73
 -32
  0
VERTEX
  8
72OFGO3D01_CO__GRIFF__F14
 10
0.0
 20
0.0
 30
0.0
 70
   128
 62
  251
 71
 -27
 72
 -32
 73
 -32
  0
VERTEX
  8
72OFGO3D01_CO__GRIFF__F14
 10
0.0
 20
0.0
 30
0.0
 70
   128
 62
  251
 71
 -32
 72
 -32
 73
 -31
  0
VERTEX
  8
72OFGO3D01_CO__GRIFF__F14
 10
0.0
 20
0.0
 30
0.0
 70
   128
 62
  251
 71
 -32
 72
 -31
 73
 -27
  0
VERTEX
  8
72OFGO3D01_CO__GRIFF__F14
 10
0.0
 20
0.0
 30
0.0
 70
   128
 62
  251
 71
 -33
 72
  34
 73
 -35
  0
VERTEX
  8
72OFGO3D01_CO__GRIFF__F14
 10
0.0
 20
0.0
 30
0.0
 70
   128
 62
  251
 71
 -33
 72
  35
 73
  35
  0
VERTEX
  8
72OFGO3D01_CO__GRIFF__F14
 10
0.0
 20
0.0
 30
0.0
 70
   128
 62
  251
 71
 -35
 72
 -35
 73
 -34
  0
VERTEX
  8
72OFGO3D01_CO__GRIFF__F14
 10
0.0
 20
0.0
 30
0.0
 70
   128
 62
  251
 71
 -35
 72
 -34
 73
 -33
  0
VERTEX
  8
72OFGO3D01_CO__GRIFF__F14
 10
0.0
 20
0.0
 30
0.0
 70
   128
 62
  251
 71
  33
 72
 -36
 73
 -34
  0
VERTEX
  8
72OFGO3D01_CO__GRIFF__F14
 10
0.0
 20
0.0
 30
0.0
 70
   128
 62
  251
 71
 -33
 72
 -34
 73
 -34
  0
VERTEX
  8
72OFGO3D01_CO__GRIFF__F14
 10
0.0
 20
0.0
 30
0.0
 70
   128
 62
  251
 71
 -34
 72
 -34
 73
 -36
  0
VERTEX
  8
72OFGO3D01_CO__GRIFF__F14
 10
0.0
 20
0.0
 30
0.0
 70
   128
 62
  251
 71
 -34
 72
 -36
 73
 -33
  0
VERTEX
  8
72OFGO3D01_CO__GRIFF__F14
 10
0.0
 20
0.0
 30
0.0
 70
   128
 62
  251
 71
 -35
 72
  36
 73
 -33
  0
VERTEX
  8
72OFGO3D01_CO__GRIFF__F14
 10
0.0
 20
0.0
 30
0.0
 70
   128
 62
  251
 71
 -35
 72
  33
 73
  33
  0
VERTEX
  8
72OFGO3D01_CO__GRIFF__F14
 10
0.0
 20
0.0
 30
0.0
 70
   128
 62
  251
 71
 -33
 72
 -33
 73
 -36
  0
VERTEX
  8
72OFGO3D01_CO__GRIFF__F14
 10
0.0
 20
0.0
 30
0.0
 70
   128
 62
  251
 71
 -33
 72
 -36
 73
 -35
  0
VERTEX
  8
72OFGO3D01_CO__GRIFF__F14
 10
0.0
 20
0.0
 30
0.0
 70
   128
 62
  251
 71
  35
 72
 -34
 73
 -36
  0
VERTEX
  8
72OFGO3D01_CO__GRIFF__F14
 10
0.0
 20
0.0
 30
0.0
 70
   128
 62
  251
 71
 -35
 72
 -36
 73
 -36
  0
VERTEX
  8
72OFGO3D01_CO__GRIFF__F14
 10
0.0
 20
0.0
 30
0.0
 70
   128
 62
  251
 71
 -36
 72
 -36
 73
 -34
  0
VERTEX
  8
72OFGO3D01_CO__GRIFF__F14
 10
0.0
 20
0.0
 30
0.0
 70
   128
 62
  251
 71
 -36
 72
 -34
 73
 -35
  0
VERTEX
  8
72OFGO3D01_CO__GRIFF__F14
 10
0.0
 20
0.0
 30
0.0
 70
   128
 62
  251
 71
 -37
 72
  35
 73
 -38
  0
VERTEX
  8
72OFGO3D01_CO__GRIFF__F14
 10
0.0
 20
0.0
 30
0.0
 70
   128
 62
  251
 71
 -37
 72
  38
 73
  38
  0
VERTEX
  8
72OFGO3D01_CO__GRIFF__F14
 10
0.0
 20
0.0
 30
0.0
 70
   128
 62
  251
 71
 -38
 72
 -38
 73
 -35
  0
VERTEX
  8
72OFGO3D01_CO__GRIFF__F14
 10
0.0
 20
0.0
 30
0.0
 70
   128
 62
  251
 71
 -38
 72
 -35
 73
 -37
  0
VERTEX
  8
72OFGO3D01_CO__GRIFF__F14
 10
0.0
 20
0.0
 30
0.0
 70
   128
 62
  251
 71
  37
 72
  33
 73
 -35
  0
VERTEX
  8
72OFGO3D01_CO__GRIFF__F14
 10
0.0
 20
0.0
 30
0.0
 70
   128
 62
  251
 71
 -37
 72
 -35
 73
 -35
  0
VERTEX
  8
72OFGO3D01_CO__GRIFF__F14
 10
0.0
 20
0.0
 30
0.0
 70
   128
 62
  251
 71
 -35
 72
 -35
 73
 -33
  0
VERTEX
  8
72OFGO3D01_CO__GRIFF__F14
 10
0.0
 20
0.0
 30
0.0
 70
   128
 62
  251
 71
 -35
 72
 -33
 73
 -37
  0
VERTEX
  8
72OFGO3D01_CO__GRIFF__F14
 10
0.0
 20
0.0
 30
0.0
 70
   128
 62
  251
 71
 -38
 72
  33
 73
 -37
  0
VERTEX
  8
72OFGO3D01_CO__GRIFF__F14
 10
0.0
 20
0.0
 30
0.0
 70
   128
 62
  251
 71
 -38
 72
  37
 73
  37
  0
VERTEX
  8
72OFGO3D01_CO__GRIFF__F14
 10
0.0
 20
0.0
 30
0.0
 70
   128
 62
  251
 71
 -37
 72
 -37
 73
 -33
  0
VERTEX
  8
72OFGO3D01_CO__GRIFF__F14
 10
0.0
 20
0.0
 30
0.0
 70
   128
 62
  251
 71
 -37
 72
 -33
 73
 -38
  0
VERTEX
  8
72OFGO3D01_CO__GRIFF__F14
 10
0.0
 20
0.0
 30
0.0
 70
   128
 62
  251
 71
  38
 72
  35
 73
 -33
  0
VERTEX
  8
72OFGO3D01_CO__GRIFF__F14
 10
0.0
 20
0.0
 30
0.0
 70
   128
 62
  251
 71
 -38
 72
 -33
 73
 -33
  0
VERTEX
  8
72OFGO3D01_CO__GRIFF__F14
 10
0.0
 20
0.0
 30
0.0
 70
   128
 62
  251
 71
 -33
 72
 -33
 73
 -35
  0
VERTEX
  8
72OFGO3D01_CO__GRIFF__F14
 10
0.0
 20
0.0
 30
0.0
 70
   128
 62
  251
 71
 -33
 72
 -35
 73
 -38
  0
VERTEX
  8
72OFGO3D01_CO__GRIFF__F14
 10
0.0
 20
0.0
 30
0.0
 70
   128
 62
  251
 71
 -39
 72
 -40
 73
 -41
  0
VERTEX
  8
72OFGO3D01_CO__GRIFF__F14
 10
0.0
 20
0.0
 30
0.0
 70
   128
 62
  251
 71
 -39
 72
  41
 73
  41
  0
VERTEX
  8
72OFGO3D01_CO__GRIFF__F14
 10
0.0
 20
0.0
 30
0.0
 70
   128
 62
  251
 71
 -41
 72
 -41
 73
 -40
  0
VERTEX
  8
72OFGO3D01_CO__GRIFF__F14
 10
0.0
 20
0.0
 30
0.0
 70
   128
 62
  251
 71
 -41
 72
 -40
 73
 -39
  0
VERTEX
  8
72OFGO3D01_CO__GRIFF__F14
 10
0.0
 20
0.0
 30
0.0
 70
   128
 62
  251
 71
 -39
 72
  42
 73
 -40
  0
VERTEX
  8
72OFGO3D01_CO__GRIFF__F14
 10
0.0
 20
0.0
 30
0.0
 70
   128
 62
  251
 71
 -39
 72
 -40
 73
 -40
  0
VERTEX
  8
72OFGO3D01_CO__GRIFF__F14
 10
0.0
 20
0.0
 30
0.0
 70
   128
 62
  251
 71
 -40
 72
 -40
 73
 -42
  0
VERTEX
  8
72OFGO3D01_CO__GRIFF__F14
 10
0.0
 20
0.0
 30
0.0
 70
   128
 62
  251
 71
 -40
 72
 -42
 73
 -39
  0
VERTEX
  8
72OFGO3D01_CO__GRIFF__F14
 10
0.0
 20
0.0
 30
0.0
 70
   128
 62
  251
 71
 -41
 72
 -42
 73
 -39
  0
VERTEX
  8
72OFGO3D01_CO__GRIFF__F14
 10
0.0
 20
0.0
 30
0.0
 70
   128
 62
  251
 71
 -41
 72
  39
 73
  39
  0
VERTEX
  8
72OFGO3D01_CO__GRIFF__F14
 10
0.0
 20
0.0
 30
0.0
 70
   128
 62
  251
 71
 -39
 72
 -39
 73
 -42
  0
VERTEX
  8
72OFGO3D01_CO__GRIFF__F14
 10
0.0
 20
0.0
 30
0.0
 70
   128
 62
  251
 71
 -39
 72
 -42
 73
 -41
  0
VERTEX
  8
72OFGO3D01_CO__GRIFF__F14
 10
0.0
 20
0.0
 30
0.0
 70
   128
 62
  251
 71
 -41
 72
  40
 73
 -42
  0
VERTEX
  8
72OFGO3D01_CO__GRIFF__F14
 10
0.0
 20
0.0
 30
0.0
 70
   128
 62
  251
 71
 -41
 72
 -42
 73
 -42
  0
VERTEX
  8
72OFGO3D01_CO__GRIFF__F14
 10
0.0
 20
0.0
 30
0.0
 70
   128
 62
  251
 71
 -42
 72
 -42
 73
 -40
  0
VERTEX
  8
72OFGO3D01_CO__GRIFF__F14
 10
0.0
 20
0.0
 30
0.0
 70
   128
 62
  251
 71
 -42
 72
 -40
 73
 -41
  0
VERTEX
  8
72OFGO3D01_CO__GRIFF__F14
 10
0.0
 20
0.0
 30
0.0
 70
   128
 62
  251
 71
 -43
 72
  44
 73
 -45
  0
VERTEX
  8
72OFGO3D01_CO__GRIFF__F14
 10
0.0
 20
0.0
 30
0.0
 70
   128
 62
  251
 71
 -43
 72
 -45
 73
 -45
  0
VERTEX
  8
72OFGO3D01_CO__GRIFF__F14
 10
0.0
 20
0.0
 30
0.0
 70
   128
 62
  251
 71
 -45
 72
 -45
 73
 -44
  0
VERTEX
  8
72OFGO3D01_CO__GRIFF__F14
 10
0.0
 20
0.0
 30
0.0
 70
   128
 62
  251
 71
 -45
 72
 -44
 73
 -43
  0
VERTEX
  8
72OFGO3D01_CO__GRIFF__F14
 10
0.0
 20
0.0
 30
0.0
 70
   128
 62
  251
 71
  43
 72
 -46
 73
 -44
  0
VERTEX
  8
72OFGO3D01_CO__GRIFF__F14
 10
0.0
 20
0.0
 30
0.0
 70
   128
 62
  251
 71
 -43
 72
 -44
 73
 -44
  0
VERTEX
  8
72OFGO3D01_CO__GRIFF__F14
 10
0.0
 20
0.0
 30
0.0
 70
   128
 62
  251
 71
 -44
 72
 -44
 73
 -46
  0
VERTEX
  8
72OFGO3D01_CO__GRIFF__F14
 10
0.0
 20
0.0
 30
0.0
 70
   128
 62
  251
 71
 -44
 72
 -46
 73
 -43
  0
VERTEX
  8
72OFGO3D01_CO__GRIFF__F14
 10
0.0
 20
0.0
 30
0.0
 70
   128
 62
  251
 71
 -45
 72
  46
 73
 -43
  0
VERTEX
  8
72OFGO3D01_CO__GRIFF__F14
 10
0.0
 20
0.0
 30
0.0
 70
   128
 62
  251
 71
 -45
 72
 -43
 73
 -43
  0
VERTEX
  8
72OFGO3D01_CO__GRIFF__F14
 10
0.0
 20
0.0
 30
0.0
 70
   128
 62
  251
 71
 -43
 72
 -43
 73
 -46
  0
VERTEX
  8
72OFGO3D01_CO__GRIFF__F14
 10
0.0
 20
0.0
 30
0.0
 70
   128
 62
  251
 71
 -43
 72
 -46
 73
 -45
  0
VERTEX
  8
72OFGO3D01_CO__GRIFF__F14
 10
0.0
 20
0.0
 30
0.0
 70
   128
 62
  251
 71
  45
 72
 -44
 73
 -46
  0
VERTEX
  8
72OFGO3D01_CO__GRIFF__F14
 10
0.0
 20
0.0
 30
0.0
 70
   128
 62
  251
 71
 -45
 72
 -46
 73
 -46
  0
VERTEX
  8
72OFGO3D01_CO__GRIFF__F14
 10
0.0
 20
0.0
 30
0.0
 70
   128
 62
  251
 71
 -46
 72
 -46
 73
 -44
  0
VERTEX
  8
72OFGO3D01_CO__GRIFF__F14
 10
0.0
 20
0.0
 30
0.0
 70
   128
 62
  251
 71
 -46
 72
 -44
 73
 -45
  0
VERTEX
  8
72OFGO3D01_CO__GRIFF__F14
 10
0.0
 20
0.0
 30
0.0
 70
   128
 62
  251
 71
 -41
 72
 -47
 73
 -48
  0
VERTEX
  8
72OFGO3D01_CO__GRIFF__F14
 10
0.0
 20
0.0
 30
0.0
 70
   128
 62
  251
 71
 -41
 72
  48
 73
  48
  0
VERTEX
  8
72OFGO3D01_CO__GRIFF__F14
 10
0.0
 20
0.0
 30
0.0
 70
   128
 62
  251
 71
 -48
 72
 -48
 73
 -47
  0
VERTEX
  8
72OFGO3D01_CO__GRIFF__F14
 10
0.0
 20
0.0
 30
0.0
 70
   128
 62
  251
 71
 -48
 72
 -47
 73
 -41
  0
VERTEX
  8
72OFGO3D01_CO__GRIFF__F14
 10
0.0
 20
0.0
 30
0.0
 70
   128
 62
  251
 71
 -41
 72
  40
 73
 -47
  0
VERTEX
  8
72OFGO3D01_CO__GRIFF__F14
 10
0.0
 20
0.0
 30
0.0
 70
   128
 62
  251
 71
 -41
 72
 -47
 73
 -47
  0
VERTEX
  8
72OFGO3D01_CO__GRIFF__F14
 10
0.0
 20
0.0
 30
0.0
 70
   128
 62
  251
 71
 -47
 72
 -47
 73
 -40
  0
VERTEX
  8
72OFGO3D01_CO__GRIFF__F14
 10
0.0
 20
0.0
 30
0.0
 70
   128
 62
  251
 71
 -47
 72
 -40
 73
 -41
  0
VERTEX
  8
72OFGO3D01_CO__GRIFF__F14
 10
0.0
 20
0.0
 30
0.0
 70
   128
 62
  251
 71
 -48
 72
 -40
 73
 -41
  0
VERTEX
  8
72OFGO3D01_CO__GRIFF__F14
 10
0.0
 20
0.0
 30
0.0
 70
   128
 62
  251
 71
 -48
 72
  41
 73
  41
  0
VERTEX
  8
72OFGO3D01_CO__GRIFF__F14
 10
0.0
 20
0.0
 30
0.0
 70
   128
 62
  251
 71
 -41
 72
 -41
 73
 -40
  0
VERTEX
  8
72OFGO3D01_CO__GRIFF__F14
 10
0.0
 20
0.0
 30
0.0
 70
   128
 62
  251
 71
 -41
 72
 -40
 73
 -48
  0
VERTEX
  8
72OFGO3D01_CO__GRIFF__F14
 10
0.0
 20
0.0
 30
0.0
 70
   128
 62
  251
 71
 -48
 72
  47
 73
 -40
  0
VERTEX
  8
72OFGO3D01_CO__GRIFF__F14
 10
0.0
 20
0.0
 30
0.0
 70
   128
 62
  251
 71
 -48
 72
 -40
 73
 -40
  0
VERTEX
  8
72OFGO3D01_CO__GRIFF__F14
 10
0.0
 20
0.0
 30
0.0
 70
   128
 62
  251
 71
 -40
 72
 -40
 73
 -47
  0
VERTEX
  8
72OFGO3D01_CO__GRIFF__F14
 10
0.0
 20
0.0
 30
0.0
 70
   128
 62
  251
 71
 -40
 72
 -47
 73
 -48
  0
VERTEX
  8
72OFGO3D01_CO__GRIFF__F14
 10
0.0
 20
0.0
 30
0.0
 70
   128
 62
  251
 71
 -49
 72
  45
 73
 -50
  0
VERTEX
  8
72OFGO3D01_CO__GRIFF__F14
 10
0.0
 20
0.0
 30
0.0
 70
   128
 62
  251
 71
 -49
 72
 -50
 73
 -50
  0
VERTEX
  8
72OFGO3D01_CO__GRIFF__F14
 10
0.0
 20
0.0
 30
0.0
 70
   128
 62
  251
 71
 -50
 72
 -50
 73
 -45
  0
VERTEX
  8
72OFGO3D01_CO__GRIFF__F14
 10
0.0
 20
0.0
 30
0.0
 70
   128
 62
  251
 71
 -50
 72
 -45
 73
 -49
  0
VERTEX
  8
72OFGO3D01_CO__GRIFF__F14
 10
0.0
 20
0.0
 30
0.0
 70
   128
 62
  251
 71
  49
 72
 -43
 73
 -45
  0
VERTEX
  8
72OFGO3D01_CO__GRIFF__F14
 10
0.0
 20
0.0
 30
0.0
 70
   128
 62
  251
 71
 -49
 72
 -45
 73
 -45
  0
VERTEX
  8
72OFGO3D01_CO__GRIFF__F14
 10
0.0
 20
0.0
 30
0.0
 70
   128
 62
  251
 71
 -45
 72
 -45
 73
 -43
  0
VERTEX
  8
72OFGO3D01_CO__GRIFF__F14
 10
0.0
 20
0.0
 30
0.0
 70
   128
 62
  251
 71
 -45
 72
 -43
 73
 -49
  0
VERTEX
  8
72OFGO3D01_CO__GRIFF__F14
 10
0.0
 20
0.0
 30
0.0
 70
   128
 62
  251
 71
 -50
 72
  43
 73
 -49
  0
VERTEX
  8
72OFGO3D01_CO__GRIFF__F14
 10
0.0
 20
0.0
 30
0.0
 70
   128
 62
  251
 71
 -50
 72
 -49
 73
 -49
  0
VERTEX
  8
72OFGO3D01_CO__GRIFF__F14
 10
0.0
 20
0.0
 30
0.0
 70
   128
 62
  251
 71
 -49
 72
 -49
 73
 -43
  0
VERTEX
  8
72OFGO3D01_CO__GRIFF__F14
 10
0.0
 20
0.0
 30
0.0
 70
   128
 62
  251
 71
 -49
 72
 -43
 73
 -50
  0
VERTEX
  8
72OFGO3D01_CO__GRIFF__F14
 10
0.0
 20
0.0
 30
0.0
 70
   128
 62
  251
 71
  50
 72
 -45
 73
 -43
  0
VERTEX
  8
72OFGO3D01_CO__GRIFF__F14
 10
0.0
 20
0.0
 30
0.0
 70
   128
 62
  251
 71
 -50
 72
 -43
 73
 -43
  0
VERTEX
  8
72OFGO3D01_CO__GRIFF__F14
 10
0.0
 20
0.0
 30
0.0
 70
   128
 62
  251
 71
 -43
 72
 -43
 73
 -45
  0
VERTEX
  8
72OFGO3D01_CO__GRIFF__F14
 10
0.0
 20
0.0
 30
0.0
 70
   128
 62
  251
 71
 -43
 72
 -45
 73
 -50
  0
VERTEX
  8
72OFGO3D01_CO__GRIFF__F14
 10
0.0
 20
0.0
 30
0.0
 70
   128
 62
  251
 71
 -51
 72
  50
 73
 -52
  0
VERTEX
  8
72OFGO3D01_CO__GRIFF__F14
 10
0.0
 20
0.0
 30
0.0
 70
   128
 62
  251
 71
 -51
 72
 -52
 73
 -52
  0
VERTEX
  8
72OFGO3D01_CO__GRIFF__F14
 10
0.0
 20
0.0
 30
0.0
 70
   128
 62
  251
 71
 -52
 72
 -52
 73
 -50
  0
VERTEX
  8
72OFGO3D01_CO__GRIFF__F14
 10
0.0
 20
0.0
 30
0.0
 70
   128
 62
  251
 71
 -52
 72
 -50
 73
 -51
  0
VERTEX
  8
72OFGO3D01_CO__GRIFF__F14
 10
0.0
 20
0.0
 30
0.0
 70
   128
 62
  251
 71
  51
 72
 -49
 73
 -50
  0
VERTEX
  8
72OFGO3D01_CO__GRIFF__F14
 10
0.0
 20
0.0
 30
0.0
 70
   128
 62
  251
 71
 -51
 72
 -50
 73
 -50
  0
VERTEX
  8
72OFGO3D01_CO__GRIFF__F14
 10
0.0
 20
0.0
 30
0.0
 70
   128
 62
  251
 71
 -50
 72
 -50
 73
 -49
  0
VERTEX
  8
72OFGO3D01_CO__GRIFF__F14
 10
0.0
 20
0.0
 30
0.0
 70
   128
 62
  251
 71
 -50
 72
 -49
 73
 -51
  0
VERTEX
  8
72OFGO3D01_CO__GRIFF__F14
 10
0.0
 20
0.0
 30
0.0
 70
   128
 62
  251
 71
 -52
 72
  49
 73
 -51
  0
VERTEX
  8
72OFGO3D01_CO__GRIFF__F14
 10
0.0
 20
0.0
 30
0.0
 70
   128
 62
  251
 71
 -52
 72
 -51
 73
 -51
  0
VERTEX
  8
72OFGO3D01_CO__GRIFF__F14
 10
0.0
 20
0.0
 30
0.0
 70
   128
 62
  251
 71
 -51
 72
 -51
 73
 -49
  0
VERTEX
  8
72OFGO3D01_CO__GRIFF__F14
 10
0.0
 20
0.0
 30
0.0
 70
   128
 62
  251
 71
 -51
 72
 -49
 73
 -52
  0
VERTEX
  8
72OFGO3D01_CO__GRIFF__F14
 10
0.0
 20
0.0
 30
0.0
 70
   128
 62
  251
 71
  52
 72
 -50
 73
 -49
  0
VERTEX
  8
72OFGO3D01_CO__GRIFF__F14
 10
0.0
 20
0.0
 30
0.0
 70
   128
 62
  251
 71
 -52
 72
 -49
 73
 -49
  0
VERTEX
  8
72OFGO3D01_CO__GRIFF__F14
 10
0.0
 20
0.0
 30
0.0
 70
   128
 62
  251
 71
 -49
 72
 -49
 73
 -50
  0
VERTEX
  8
72OFGO3D01_CO__GRIFF__F14
 10
0.0
 20
0.0
 30
0.0
 70
   128
 62
  251
 71
 -49
 72
 -50
 73
 -52
  0
VERTEX
  8
72OFGO3D01_CO__GRIFF__F14
 10
0.0
 20
0.0
 30
0.0
 70
   128
 62
  251
 71
 -37
 72
  52
 73
 -38
  0
VERTEX
  8
72OFGO3D01_CO__GRIFF__F14
 10
0.0
 20
0.0
 30
0.0
 70
   128
 62
  251
 71
 -37
 72
  38
 73
  38
  0
VERTEX
  8
72OFGO3D01_CO__GRIFF__F14
 10
0.0
 20
0.0
 30
0.0
 70
   128
 62
  251
 71
 -38
 72
 -38
 73
 -52
  0
VERTEX
  8
72OFGO3D01_CO__GRIFF__F14
 10
0.0
 20
0.0
 30
0.0
 70
   128
 62
  251
 71
 -38
 72
 -52
 73
 -37
  0
VERTEX
  8
72OFGO3D01_CO__GRIFF__F14
 10
0.0
 20
0.0
 30
0.0
 70
   128
 62
  251
 71
  37
 72
 -51
 73
 -52
  0
VERTEX
  8
72OFGO3D01_CO__GRIFF__F14
 10
0.0
 20
0.0
 30
0.0
 70
   128
 62
  251
 71
 -37
 72
 -52
 73
 -52
  0
VERTEX
  8
72OFGO3D01_CO__GRIFF__F14
 10
0.0
 20
0.0
 30
0.0
 70
   128
 62
  251
 71
 -52
 72
 -52
 73
 -51
  0
VERTEX
  8
72OFGO3D01_CO__GRIFF__F14
 10
0.0
 20
0.0
 30
0.0
 70
   128
 62
  251
 71
 -52
 72
 -51
 73
 -37
  0
VERTEX
  8
72OFGO3D01_CO__GRIFF__F14
 10
0.0
 20
0.0
 30
0.0
 70
   128
 62
  251
 71
 -38
 72
  51
 73
 -37
  0
VERTEX
  8
72OFGO3D01_CO__GRIFF__F14
 10
0.0
 20
0.0
 30
0.0
 70
   128
 62
  251
 71
 -38
 72
  37
 73
  37
  0
VERTEX
  8
72OFGO3D01_CO__GRIFF__F14
 10
0.0
 20
0.0
 30
0.0
 70
   128
 62
  251
 71
 -37
 72
 -37
 73
 -51
  0
VERTEX
  8
72OFGO3D01_CO__GRIFF__F14
 10
0.0
 20
0.0
 30
0.0
 70
   128
 62
  251
 71
 -37
 72
 -51
 73
 -38
  0
VERTEX
  8
72OFGO3D01_CO__GRIFF__F14
 10
0.0
 20
0.0
 30
0.0
 70
   128
 62
  251
 71
  38
 72
 -52
 73
 -51
  0
VERTEX
  8
72OFGO3D01_CO__GRIFF__F14
 10
0.0
 20
0.0
 30
0.0
 70
   128
 62
  251
 71
 -38
 72
 -51
 73
 -51
  0
VERTEX
  8
72OFGO3D01_CO__GRIFF__F14
 10
0.0
 20
0.0
 30
0.0
 70
   128
 62
  251
 71
 -51
 72
 -51
 73
 -52
  0
VERTEX
  8
72OFGO3D01_CO__GRIFF__F14
 10
0.0
 20
0.0
 30
0.0
 70
   128
 62
  251
 71
 -51
 72
 -52
 73
 -38
  0
VERTEX
  8
72OFGO3D01_CO__GRIFF__F14
 10
0.0
 20
0.0
 30
0.0
 70
   128
 62
  251
 71
 -34
 72
 -48
 73
 -47
  0
VERTEX
  8
72OFGO3D01_CO__GRIFF__F14
 10
0.0
 20
0.0
 30
0.0
 70
   128
 62
  251
 71
 -34
 72
  47
 73
  47
  0
VERTEX
  8
72OFGO3D01_CO__GRIFF__F14
 10
0.0
 20
0.0
 30
0.0
 70
   128
 62
  251
 71
 -47
 72
 -47
 73
 -48
  0
VERTEX
  8
72OFGO3D01_CO__GRIFF__F14
 10
0.0
 20
0.0
 30
0.0
 70
   128
 62
  251
 71
 -47
 72
 -48
 73
 -34
  0
VERTEX
  8
72OFGO3D01_CO__GRIFF__F14
 10
0.0
 20
0.0
 30
0.0
 70
   128
 62
  251
 71
 -34
 72
  36
 73
 -48
  0
VERTEX
  8
72OFGO3D01_CO__GRIFF__F14
 10
0.0
 20
0.0
 30
0.0
 70
   128
 62
  251
 71
 -34
 72
 -48
 73
 -48
  0
VERTEX
  8
72OFGO3D01_CO__GRIFF__F14
 10
0.0
 20
0.0
 30
0.0
 70
   128
 62
  251
 71
 -48
 72
 -48
 73
 -36
  0
VERTEX
  8
72OFGO3D01_CO__GRIFF__F14
 10
0.0
 20
0.0
 30
0.0
 70
   128
 62
  251
 71
 -48
 72
 -36
 73
 -34
  0
VERTEX
  8
72OFGO3D01_CO__GRIFF__F14
 10
0.0
 20
0.0
 30
0.0
 70
   128
 62
  251
 71
 -47
 72
 -36
 73
 -34
  0
VERTEX
  8
72OFGO3D01_CO__GRIFF__F14
 10
0.0
 20
0.0
 30
0.0
 70
   128
 62
  251
 71
 -47
 72
  34
 73
  34
  0
VERTEX
  8
72OFGO3D01_CO__GRIFF__F14
 10
0.0
 20
0.0
 30
0.0
 70
   128
 62
  251
 71
 -34
 72
 -34
 73
 -36
  0
VERTEX
  8
72OFGO3D01_CO__GRIFF__F14
 10
0.0
 20
0.0
 30
0.0
 70
   128
 62
  251
 71
 -34
 72
 -36
 73
 -47
  0
VERTEX
  8
72OFGO3D01_CO__GRIFF__F14
 10
0.0
 20
0.0
 30
0.0
 70
   128
 62
  251
 71
 -47
 72
  48
 73
 -36
  0
VERTEX
  8
72OFGO3D01_CO__GRIFF__F14
 10
0.0
 20
0.0
 30
0.0
 70
   128
 62
  251
 71
 -47
 72
 -36
 73
 -36
  0
VERTEX
  8
72OFGO3D01_CO__GRIFF__F14
 10
0.0
 20
0.0
 30
0.0
 70
   128
 62
  251
 71
 -36
 72
 -36
 73
 -48
  0
VERTEX
  8
72OFGO3D01_CO__GRIFF__F14
 10
0.0
 20
0.0
 30
0.0
 70
   128
 62
  251
 71
 -36
 72
 -48
 73
 -47
  0
VERTEX
  8
72OFGO3D01_CO__GRIFF__F14
 10
0.0
 20
0.0
 30
0.0
 70
   128
 62
  251
 71
 -3
 72
  42
 73
 -2
  0
VERTEX
  8
72OFGO3D01_CO__GRIFF__F14
 10
0.0
 20
0.0
 30
0.0
 70
   128
 62
  251
 71
 -3
 72
 -2
 73
 -2
  0
VERTEX
  8
72OFGO3D01_CO__GRIFF__F14
 10
0.0
 20
0.0
 30
0.0
 70
   128
 62
  251
 71
 -2
 72
 -2
 73
 -42
  0
VERTEX
  8
72OFGO3D01_CO__GRIFF__F14
 10
0.0
 20
0.0
 30
0.0
 70
   128
 62
  251
 71
 -2
 72
 -42
 73
 -3
  0
VERTEX
  8
72OFGO3D01_CO__GRIFF__F14
 10
0.0
 20
0.0
 30
0.0
 70
   128
 62
  251
 71
  3
 72
 -39
 73
 -42
  0
VERTEX
  8
72OFGO3D01_CO__GRIFF__F14
 10
0.0
 20
0.0
 30
0.0
 70
   128
 62
  251
 71
 -3
 72
 -42
 73
 -42
  0
VERTEX
  8
72OFGO3D01_CO__GRIFF__F14
 10
0.0
 20
0.0
 30
0.0
 70
   128
 62
  251
 71
 -42
 72
 -42
 73
 -39
  0
VERTEX
  8
72OFGO3D01_CO__GRIFF__F14
 10
0.0
 20
0.0
 30
0.0
 70
   128
 62
  251
 71
 -42
 72
 -39
 73
 -3
  0
VERTEX
  8
72OFGO3D01_CO__GRIFF__F14
 10
0.0
 20
0.0
 30
0.0
 70
   128
 62
  251
 71
 -2
 72
  39
 73
 -3
  0
VERTEX
  8
72OFGO3D01_CO__GRIFF__F14
 10
0.0
 20
0.0
 30
0.0
 70
   128
 62
  251
 71
 -2
 72
 -3
 73
 -3
  0
VERTEX
  8
72OFGO3D01_CO__GRIFF__F14
 10
0.0
 20
0.0
 30
0.0
 70
   128
 62
  251
 71
 -3
 72
 -3
 73
 -39
  0
VERTEX
  8
72OFGO3D01_CO__GRIFF__F14
 10
0.0
 20
0.0
 30
0.0
 70
   128
 62
  251
 71
 -3
 72
 -39
 73
 -2
  0
VERTEX
  8
72OFGO3D01_CO__GRIFF__F14
 10
0.0
 20
0.0
 30
0.0
 70
   128
 62
  251
 71
  2
 72
 -42
 73
 -39
  0
VERTEX
  8
72OFGO3D01_CO__GRIFF__F14
 10
0.0
 20
0.0
 30
0.0
 70
   128
 62
  251
 71
 -2
 72
 -39
 73
 -39
  0
VERTEX
  8
72OFGO3D01_CO__GRIFF__F14
 10
0.0
 20
0.0
 30
0.0
 70
   128
 62
  251
 71
 -39
 72
 -39
 73
 -42
  0
VERTEX
  8
72OFGO3D01_CO__GRIFF__F14
 10
0.0
 20
0.0
 30
0.0
 70
   128
 62
  251
 71
 -39
 72
 -42
 73
 -2
  0
VERTEX
  8
72OFGO3D01_CO__GRIFF__F14
 10
0.0
 20
0.0
 30
0.0
 70
   128
 62
  251
 71
 -5
 72
 -44
 73
 -46
  0
VERTEX
  8
72OFGO3D01_CO__GRIFF__F14
 10
0.0
 20
0.0
 30
0.0
 70
   128
 62
  251
 71
 -5
 72
  46
 73
  46
  0
VERTEX
  8
72OFGO3D01_CO__GRIFF__F14
 10
0.0
 20
0.0
 30
0.0
 70
   128
 62
  251
 71
 -46
 72
 -46
 73
 -44
  0
VERTEX
  8
72OFGO3D01_CO__GRIFF__F14
 10
0.0
 20
0.0
 30
0.0
 70
   128
 62
  251
 71
 -46
 72
 -44
 73
 -5
  0
VERTEX
  8
72OFGO3D01_CO__GRIFF__F14
 10
0.0
 20
0.0
 30
0.0
 70
   128
 62
  251
 71
 -5
 72
  7
 73
 -44
  0
VERTEX
  8
72OFGO3D01_CO__GRIFF__F14
 10
0.0
 20
0.0
 30
0.0
 70
   128
 62
  251
 71
 -5
 72
 -44
 73
 -44
  0
VERTEX
  8
72OFGO3D01_CO__GRIFF__F14
 10
0.0
 20
0.0
 30
0.0
 70
   128
 62
  251
 71
 -44
 72
 -44
 73
 -7
  0
VERTEX
  8
72OFGO3D01_CO__GRIFF__F14
 10
0.0
 20
0.0
 30
0.0
 70
   128
 62
  251
 71
 -44
 72
 -7
 73
 -5
  0
VERTEX
  8
72OFGO3D01_CO__GRIFF__F14
 10
0.0
 20
0.0
 30
0.0
 70
   128
 62
  251
 71
 -46
 72
 -7
 73
 -5
  0
VERTEX
  8
72OFGO3D01_CO__GRIFF__F14
 10
0.0
 20
0.0
 30
0.0
 70
   128
 62
  251
 71
 -46
 72
  5
 73
  5
  0
VERTEX
  8
72OFGO3D01_CO__GRIFF__F14
 10
0.0
 20
0.0
 30
0.0
 70
   128
 62
  251
 71
 -5
 72
 -5
 73
 -7
  0
VERTEX
  8
72OFGO3D01_CO__GRIFF__F14
 10
0.0
 20
0.0
 30
0.0
 70
   128
 62
  251
 71
 -5
 72
 -7
 73
 -46
  0
VERTEX
  8
72OFGO3D01_CO__GRIFF__F14
 10
0.0
 20
0.0
 30
0.0
 70
   128
 62
  251
 71
 -46
 72
  44
 73
 -7
  0
VERTEX
  8
72OFGO3D01_CO__GRIFF__F14
 10
0.0
 20
0.0
 30
0.0
 70
   128
 62
  251
 71
 -46
 72
 -7
 73
 -7
  0
VERTEX
  8
72OFGO3D01_CO__GRIFF__F14
 10
0.0
 20
0.0
 30
0.0
 70
   128
 62
  251
 71
 -7
 72
 -7
 73
 -44
  0
VERTEX
  8
72OFGO3D01_CO__GRIFF__F14
 10
0.0
 20
0.0
 30
0.0
 70
   128
 62
  251
 71
 -7
 72
 -44
 73
 -46
  0
VERTEX
  8
72OFGO3D01_CO__GRIFF__F14
 10
0.0
 20
0.0
 30
0.0
 70
   128
 62
  251
 71
 -8
 72
 -3
 73
 -5
  0
VERTEX
  8
72OFGO3D01_CO__GRIFF__F14
 10
0.0
 20
0.0
 30
0.0
 70
   128
 62
  251
 71
 -8
 72
  5
 73
  5
  0
VERTEX
  8
72OFGO3D01_CO__GRIFF__F14
 10
0.0
 20
0.0
 30
0.0
 70
   128
 62
  251
 71
 -5
 72
 -5
 73
 -3
  0
VERTEX
  8
72OFGO3D01_CO__GRIFF__F14
 10
0.0
 20
0.0
 30
0.0
 70
   128
 62
  251
 71
 -5
 72
 -3
 73
 -8
  0
VERTEX
  8
72OFGO3D01_CO__GRIFF__F14
 10
0.0
 20
0.0
 30
0.0
 70
   128
 62
  251
 71
 -8
 72
  1
 73
 -3
  0
VERTEX
  8
72OFGO3D01_CO__GRIFF__F14
 10
0.0
 20
0.0
 30
0.0
 70
   128
 62
  251
 71
 -8
 72
 -3
 73
 -3
  0
VERTEX
  8
72OFGO3D01_CO__GRIFF__F14
 10
0.0
 20
0.0
 30
0.0
 70
   128
 62
  251
 71
 -3
 72
 -3
 73
 -1
  0
VERTEX
  8
72OFGO3D01_CO__GRIFF__F14
 10
0.0
 20
0.0
 30
0.0
 70
   128
 62
  251
 71
 -3
 72
 -1
 73
 -8
  0
VERTEX
  8
72OFGO3D01_CO__GRIFF__F14
 10
0.0
 20
0.0
 30
0.0
 70
   128
 62
  251
 71
 -5
 72
 -1
 73
 -8
  0
VERTEX
  8
72OFGO3D01_CO__GRIFF__F14
 10
0.0
 20
0.0
 30
0.0
 70
   128
 62
  251
 71
 -5
 72
  8
 73
  8
  0
VERTEX
  8
72OFGO3D01_CO__GRIFF__F14
 10
0.0
 20
0.0
 30
0.0
 70
   128
 62
  251
 71
 -8
 72
 -8
 73
 -1
  0
VERTEX
  8
72OFGO3D01_CO__GRIFF__F14
 10
0.0
 20
0.0
 30
0.0
 70
   128
 62
  251
 71
 -8
 72
 -1
 73
 -5
  0
VERTEX
  8
72OFGO3D01_CO__GRIFF__F14
 10
0.0
 20
0.0
 30
0.0
 70
   128
 62
  251
 71
 -5
 72
  3
 73
 -1
  0
VERTEX
  8
72OFGO3D01_CO__GRIFF__F14
 10
0.0
 20
0.0
 30
0.0
 70
   128
 62
  251
 71
 -5
 72
 -1
 73
 -1
  0
VERTEX
  8
72OFGO3D01_CO__GRIFF__F14
 10
0.0
 20
0.0
 30
0.0
 70
   128
 62
  251
 71
 -1
 72
 -1
 73
 -3
  0
VERTEX
  8
72OFGO3D01_CO__GRIFF__F14
 10
0.0
 20
0.0
 30
0.0
 70
   128
 62
  251
 71
 -1
 72
 -3
 73
 -5
  0
VERTEX
  8
72OFGO3D01_CO__GRIFF__F14
 10
0.0
 20
0.0
 30
0.0
 70
   128
 62
  251
 71
 -12
 72
 -13
 73
 -9
  0
VERTEX
  8
72OFGO3D01_CO__GRIFF__F14
 10
0.0
 20
0.0
 30
0.0
 70
   128
 62
  251
 71
 -12
 72
  9
 73
  9
  0
VERTEX
  8
72OFGO3D01_CO__GRIFF__F14
 10
0.0
 20
0.0
 30
0.0
 70
   128
 62
  251
 71
 -9
 72
 -9
 73
 -13
  0
VERTEX
  8
72OFGO3D01_CO__GRIFF__F14
 10
0.0
 20
0.0
 30
0.0
 70
   128
 62
  251
 71
 -9
 72
 -13
 73
 -12
  0
VERTEX
  8
72OFGO3D01_CO__GRIFF__F14
 10
0.0
 20
0.0
 30
0.0
 70
   128
 62
  251
 71
 -12
 72
  16
 73
 -13
  0
VERTEX
  8
72OFGO3D01_CO__GRIFF__F14
 10
0.0
 20
0.0
 30
0.0
 70
   128
 62
  251
 71
 -12
 72
 -13
 73
 -13
  0
VERTEX
  8
72OFGO3D01_CO__GRIFF__F14
 10
0.0
 20
0.0
 30
0.0
 70
   128
 62
  251
 71
 -13
 72
 -13
 73
 -16
  0
VERTEX
  8
72OFGO3D01_CO__GRIFF__F14
 10
0.0
 20
0.0
 30
0.0
 70
   128
 62
  251
 71
 -13
 72
 -16
 73
 -12
  0
VERTEX
  8
72OFGO3D01_CO__GRIFF__F14
 10
0.0
 20
0.0
 30
0.0
 70
   128
 62
  251
 71
 -9
 72
 -16
 73
 -12
  0
VERTEX
  8
72OFGO3D01_CO__GRIFF__F14
 10
0.0
 20
0.0
 30
0.0
 70
   128
 62
  251
 71
 -9
 72
  12
 73
  12
  0
VERTEX
  8
72OFGO3D01_CO__GRIFF__F14
 10
0.0
 20
0.0
 30
0.0
 70
   128
 62
  251
 71
 -12
 72
 -12
 73
 -16
  0
VERTEX
  8
72OFGO3D01_CO__GRIFF__F14
 10
0.0
 20
0.0
 30
0.0
 70
   128
 62
  251
 71
 -12
 72
 -16
 73
 -9
  0
VERTEX
  8
72OFGO3D01_CO__GRIFF__F14
 10
0.0
 20
0.0
 30
0.0
 70
   128
 62
  251
 71
 -9
 72
  13
 73
 -16
  0
VERTEX
  8
72OFGO3D01_CO__GRIFF__F14
 10
0.0
 20
0.0
 30
0.0
 70
   128
 62
  251
 71
 -9
 72
 -16
 73
 -16
  0
VERTEX
  8
72OFGO3D01_CO__GRIFF__F14
 10
0.0
 20
0.0
 30
0.0
 70
   128
 62
  251
 71
 -16
 72
 -16
 73
 -13
  0
VERTEX
  8
72OFGO3D01_CO__GRIFF__F14
 10
0.0
 20
0.0
 30
0.0
 70
   128
 62
  251
 71
 -16
 72
 -13
 73
 -9
  0
VERTEX
  8
72OFGO3D01_CO__GRIFF__F14
 10
0.0
 20
0.0
 30
0.0
 70
   128
 62
  251
 71
 -19
 72
 -1
 73
 -8
  0
VERTEX
  8
72OFGO3D01_CO__GRIFF__F14
 10
0.0
 20
0.0
 30
0.0
 70
   128
 62
  251
 71
 -19
 72
  8
 73
  8
  0
VERTEX
  8
72OFGO3D01_CO__GRIFF__F14
 10
0.0
 20
0.0
 30
0.0
 70
   128
 62
  251
 71
 -8
 72
 -8
 73
 -1
  0
VERTEX
  8
72OFGO3D01_CO__GRIFF__F14
 10
0.0
 20
0.0
 30
0.0
 70
   128
 62
  251
 71
 -8
 72
 -1
 73
 -19
  0
VERTEX
  8
72OFGO3D01_CO__GRIFF__F14
 10
0.0
 20
0.0
 30
0.0
 70
   128
 62
  251
 71
 -19
 72
  18
 73
 -1
  0
VERTEX
  8
72OFGO3D01_CO__GRIFF__F14
 10
0.0
 20
0.0
 30
0.0
 70
   128
 62
  251
 71
 -19
 72
 -1
 73
 -1
  0
VERTEX
  8
72OFGO3D01_CO__GRIFF__F14
 10
0.0
 20
0.0
 30
0.0
 70
   128
 62
  251
 71
 -1
 72
 -1
 73
 -18
  0
VERTEX
  8
72OFGO3D01_CO__GRIFF__F14
 10
0.0
 20
0.0
 30
0.0
 70
   128
 62
  251
 71
 -1
 72
 -18
 73
 -19
  0
VERTEX
  8
72OFGO3D01_CO__GRIFF__F14
 10
0.0
 20
0.0
 30
0.0
 70
   128
 62
  251
 71
 -8
 72
 -18
 73
 -19
  0
VERTEX
  8
72OFGO3D01_CO__GRIFF__F14
 10
0.0
 20
0.0
 30
0.0
 70
   128
 62
  251
 71
 -8
 72
  19
 73
  19
  0
VERTEX
  8
72OFGO3D01_CO__GRIFF__F14
 10
0.0
 20
0.0
 30
0.0
 70
   128
 62
  251
 71
 -19
 72
 -19
 73
 -18
  0
VERTEX
  8
72OFGO3D01_CO__GRIFF__F14
 10
0.0
 20
0.0
 30
0.0
 70
   128
 62
  251
 71
 -19
 72
 -18
 73
 -8
  0
VERTEX
  8
72OFGO3D01_CO__GRIFF__F14
 10
0.0
 20
0.0
 30
0.0
 70
   128
 62
  251
 71
 -8
 72
  1
 73
 -18
  0
VERTEX
  8
72OFGO3D01_CO__GRIFF__F14
 10
0.0
 20
0.0
 30
0.0
 70
   128
 62
  251
 71
 -8
 72
 -18
 73
 -18
  0
VERTEX
  8
72OFGO3D01_CO__GRIFF__F14
 10
0.0
 20
0.0
 30
0.0
 70
   128
 62
  251
 71
 -18
 72
 -18
 73
 -1
  0
VERTEX
  8
72OFGO3D01_CO__GRIFF__F14
 10
0.0
 20
0.0
 30
0.0
 70
   128
 62
  251
 71
 -18
 72
 -1
 73
 -8
  0
VERTEX
  8
72OFGO3D01_CO__GRIFF__F14
 10
0.0
 20
0.0
 30
0.0
 70
   128
 62
  251
 71
 -9
 72
 -18
 73
 -19
  0
VERTEX
  8
72OFGO3D01_CO__GRIFF__F14
 10
0.0
 20
0.0
 30
0.0
 70
   128
 62
  251
 71
 -9
 72
  19
 73
  19
  0
VERTEX
  8
72OFGO3D01_CO__GRIFF__F14
 10
0.0
 20
0.0
 30
0.0
 70
   128
 62
  251
 71
 -19
 72
 -19
 73
 -18
  0
VERTEX
  8
72OFGO3D01_CO__GRIFF__F14
 10
0.0
 20
0.0
 30
0.0
 70
   128
 62
  251
 71
 -19
 72
 -18
 73
 -9
  0
VERTEX
  8
72OFGO3D01_CO__GRIFF__F14
 10
0.0
 20
0.0
 30
0.0
 70
   128
 62
  251
 71
 -9
 72
  13
 73
 -18
  0
VERTEX
  8
72OFGO3D01_CO__GRIFF__F14
 10
0.0
 20
0.0
 30
0.0
 70
   128
 62
  251
 71
 -9
 72
 -18
 73
 -18
  0
VERTEX
  8
72OFGO3D01_CO__GRIFF__F14
 10
0.0
 20
0.0
 30
0.0
 70
   128
 62
  251
 71
 -18
 72
 -18
 73
 -13
  0
VERTEX
  8
72OFGO3D01_CO__GRIFF__F14
 10
0.0
 20
0.0
 30
0.0
 70
   128
 62
  251
 71
 -18
 72
 -13
 73
 -9
  0
VERTEX
  8
72OFGO3D01_CO__GRIFF__F14
 10
0.0
 20
0.0
 30
0.0
 70
   128
 62
  251
 71
 -19
 72
 -13
 73
 -9
  0
VERTEX
  8
72OFGO3D01_CO__GRIFF__F14
 10
0.0
 20
0.0
 30
0.0
 70
   128
 62
  251
 71
 -19
 72
  9
 73
  9
  0
VERTEX
  8
72OFGO3D01_CO__GRIFF__F14
 10
0.0
 20
0.0
 30
0.0
 70
   128
 62
  251
 71
 -9
 72
 -9
 73
 -13
  0
VERTEX
  8
72OFGO3D01_CO__GRIFF__F14
 10
0.0
 20
0.0
 30
0.0
 70
   128
 62
  251
 71
 -9
 72
 -13
 73
 -19
  0
VERTEX
  8
72OFGO3D01_CO__GRIFF__F14
 10
0.0
 20
0.0
 30
0.0
 70
   128
 62
  251
 71
 -19
 72
  18
 73
 -13
  0
VERTEX
  8
72OFGO3D01_CO__GRIFF__F14
 10
0.0
 20
0.0
 30
0.0
 70
   128
 62
  251
 71
 -19
 72
 -13
 73
 -13
  0
VERTEX
  8
72OFGO3D01_CO__GRIFF__F14
 10
0.0
 20
0.0
 30
0.0
 70
   128
 62
  251
 71
 -13
 72
 -13
 73
 -18
  0
VERTEX
  8
72OFGO3D01_CO__GRIFF__F14
 10
0.0
 20
0.0
 30
0.0
 70
   128
 62
  251
 71
 -13
 72
 -18
 73
 -19
  0
VERTEX
  8
72OFGO3D01_CO__GRIFF__F14
 10
0.0
 20
0.0
 30
0.0
 70
   128
 62
  251
 71
 -22
 72
 -30
 73
 -23
  0
VERTEX
  8
72OFGO3D01_CO__GRIFF__F14
 10
0.0
 20
0.0
 30
0.0
 70
   128
 62
  251
 71
 -22
 72
  23
 73
  23
  0
VERTEX
  8
72OFGO3D01_CO__GRIFF__F14
 10
0.0
 20
0.0
 30
0.0
 70
   128
 62
  251
 71
 -23
 72
 -23
 73
 -30
  0
VERTEX
  8
72OFGO3D01_CO__GRIFF__F14
 10
0.0
 20
0.0
 30
0.0
 70
   128
 62
  251
 71
 -23
 72
 -30
 73
 -22
  0
VERTEX
  8
72OFGO3D01_CO__GRIFF__F14
 10
0.0
 20
0.0
 30
0.0
 70
   128
 62
  251
 71
 -22
 72
  27
 73
 -30
  0
VERTEX
  8
72OFGO3D01_CO__GRIFF__F14
 10
0.0
 20
0.0
 30
0.0
 70
   128
 62
  251
 71
 -22
 72
 -30
 73
 -30
  0
VERTEX
  8
72OFGO3D01_CO__GRIFF__F14
 10
0.0
 20
0.0
 30
0.0
 70
   128
 62
  251
 71
 -30
 72
 -30
 73
 -27
  0
VERTEX
  8
72OFGO3D01_CO__GRIFF__F14
 10
0.0
 20
0.0
 30
0.0
 70
   128
 62
  251
 71
 -30
 72
 -27
 73
 -22
  0
VERTEX
  8
72OFGO3D01_CO__GRIFF__F14
 10
0.0
 20
0.0
 30
0.0
 70
   128
 62
  251
 71
 -23
 72
 -27
 73
 -22
  0
VERTEX
  8
72OFGO3D01_CO__GRIFF__F14
 10
0.0
 20
0.0
 30
0.0
 70
   128
 62
  251
 71
 -23
 72
  22
 73
  22
  0
VERTEX
  8
72OFGO3D01_CO__GRIFF__F14
 10
0.0
 20
0.0
 30
0.0
 70
   128
 62
  251
 71
 -22
 72
 -22
 73
 -27
  0
VERTEX
  8
72OFGO3D01_CO__GRIFF__F14
 10
0.0
 20
0.0
 30
0.0
 70
   128
 62
  251
 71
 -22
 72
 -27
 73
 -23
  0
VERTEX
  8
72OFGO3D01_CO__GRIFF__F14
 10
0.0
 20
0.0
 30
0.0
 70
   128
 62
  251
 71
 -23
 72
  30
 73
 -27
  0
VERTEX
  8
72OFGO3D01_CO__GRIFF__F14
 10
0.0
 20
0.0
 30
0.0
 70
   128
 62
  251
 71
 -23
 72
 -27
 73
 -27
  0
VERTEX
  8
72OFGO3D01_CO__GRIFF__F14
 10
0.0
 20
0.0
 30
0.0
 70
   128
 62
  251
 71
 -27
 72
 -27
 73
 -30
  0
VERTEX
  8
72OFGO3D01_CO__GRIFF__F14
 10
0.0
 20
0.0
 30
0.0
 70
   128
 62
  251
 71
 -27
 72
 -30
 73
 -23
  0
VERTEX
  8
72OFGO3D01_CO__GRIFF__F14
 10
0.0
 20
0.0
 30
0.0
 70
   128
 62
  251
 71
 -23
 72
 -16
 73
 -12
  0
VERTEX
  8
72OFGO3D01_CO__GRIFF__F14
 10
0.0
 20
0.0
 30
0.0
 70
   128
 62
  251
 71
 -23
 72
  12
 73
  12
  0
VERTEX
  8
72OFGO3D01_CO__GRIFF__F14
 10
0.0
 20
0.0
 30
0.0
 70
   128
 62
  251
 71
 -12
 72
 -12
 73
 -16
  0
VERTEX
  8
72OFGO3D01_CO__GRIFF__F14
 10
0.0
 20
0.0
 30
0.0
 70
   128
 62
  251
 71
 -12
 72
 -16
 73
 -23
  0
VERTEX
  8
72OFGO3D01_CO__GRIFF__F14
 10
0.0
 20
0.0
 30
0.0
 70
   128
 62
  251
 71
 -23
 72
  30
 73
 -16
  0
VERTEX
  8
72OFGO3D01_CO__GRIFF__F14
 10
0.0
 20
0.0
 30
0.0
 70
   128
 62
  251
 71
 -23
 72
 -16
 73
 -16
  0
VERTEX
  8
72OFGO3D01_CO__GRIFF__F14
 10
0.0
 20
0.0
 30
0.0
 70
   128
 62
  251
 71
 -16
 72
 -16
 73
 -30
  0
VERTEX
  8
72OFGO3D01_CO__GRIFF__F14
 10
0.0
 20
0.0
 30
0.0
 70
   128
 62
  251
 71
 -16
 72
 -30
 73
 -23
  0
VERTEX
  8
72OFGO3D01_CO__GRIFF__F14
 10
0.0
 20
0.0
 30
0.0
 70
   128
 62
  251
 71
 -12
 72
 -30
 73
 -23
  0
VERTEX
  8
72OFGO3D01_CO__GRIFF__F14
 10
0.0
 20
0.0
 30
0.0
 70
   128
 62
  251
 71
 -12
 72
  23
 73
  23
  0
VERTEX
  8
72OFGO3D01_CO__GRIFF__F14
 10
0.0
 20
0.0
 30
0.0
 70
   128
 62
  251
 71
 -23
 72
 -23
 73
 -30
  0
VERTEX
  8
72OFGO3D01_CO__GRIFF__F14
 10
0.0
 20
0.0
 30
0.0
 70
   128
 62
  251
 71
 -23
 72
 -30
 73
 -12
  0
VERTEX
  8
72OFGO3D01_CO__GRIFF__F14
 10
0.0
 20
0.0
 30
0.0
 70
   128
 62
  251
 71
 -12
 72
  16
 73
 -30
  0
VERTEX
  8
72OFGO3D01_CO__GRIFF__F14
 10
0.0
 20
0.0
 30
0.0
 70
   128
 62
  251
 71
 -12
 72
 -30
 73
 -30
  0
VERTEX
  8
72OFGO3D01_CO__GRIFF__F14
 10
0.0
 20
0.0
 30
0.0
 70
   128
 62
  251
 71
 -30
 72
 -30
 73
 -16
  0
VERTEX
  8
72OFGO3D01_CO__GRIFF__F14
 10
0.0
 20
0.0
 30
0.0
 70
   128
 62
  251
 71
 -30
 72
 -16
 73
 -12
  0
VERTEX
  8
72OFGO3D01_CO__GRIFF__F14
 10
0.0
 20
0.0
 30
0.0
 70
   128
 62
  251
 71
 -27
 72
  26
 73
 -22
  0
VERTEX
  8
72OFGO3D01_CO__GRIFF__F14
 10
0.0
 20
0.0
 30
0.0
 70
   128
 62
  251
 71
 -27
 72
 -22
 73
 -22
  0
VERTEX
  8
72OFGO3D01_CO__GRIFF__F14
 10
0.0
 20
0.0
 30
0.0
 70
   128
 62
  251
 71
 -22
 72
 -22
 73
 -26
  0
VERTEX
  8
72OFGO3D01_CO__GRIFF__F14
 10
0.0
 20
0.0
 30
0.0
 70
   128
 62
  251
 71
 -22
 72
 -26
 73
 -27
  0
VERTEX
  8
72OFGO3D01_CO__GRIFF__F14
 10
0.0
 20
0.0
 30
0.0
 70
   128
 62
  251
 71
  27
 72
  31
 73
 -26
  0
VERTEX
  8
72OFGO3D01_CO__GRIFF__F14
 10
0.0
 20
0.0
 30
0.0
 70
   128
 62
  251
 71
 -27
 72
 -26
 73
 -26
  0
VERTEX
  8
72OFGO3D01_CO__GRIFF__F14
 10
0.0
 20
0.0
 30
0.0
 70
   128
 62
  251
 71
 -26
 72
 -26
 73
 -31
  0
VERTEX
  8
72OFGO3D01_CO__GRIFF__F14
 10
0.0
 20
0.0
 30
0.0
 70
   128
 62
  251
 71
 -26
 72
 -31
 73
 -27
  0
VERTEX
  8
72OFGO3D01_CO__GRIFF__F14
 10
0.0
 20
0.0
 30
0.0
 70
   128
 62
  251
 71
 -22
 72
  31
 73
 -27
  0
VERTEX
  8
72OFGO3D01_CO__GRIFF__F14
 10
0.0
 20
0.0
 30
0.0
 70
   128
 62
  251
 71
 -22
 72
 -27
 73
 -27
  0
VERTEX
  8
72OFGO3D01_CO__GRIFF__F14
 10
0.0
 20
0.0
 30
0.0
 70
   128
 62
  251
 71
 -27
 72
 -27
 73
 -31
  0
VERTEX
  8
72OFGO3D01_CO__GRIFF__F14
 10
0.0
 20
0.0
 30
0.0
 70
   128
 62
  251
 71
 -27
 72
 -31
 73
 -22
  0
VERTEX
  8
72OFGO3D01_CO__GRIFF__F14
 10
0.0
 20
0.0
 30
0.0
 70
   128
 62
  251
 71
  22
 72
  26
 73
 -31
  0
VERTEX
  8
72OFGO3D01_CO__GRIFF__F14
 10
0.0
 20
0.0
 30
0.0
 70
   128
 62
  251
 71
 -22
 72
 -31
 73
 -31
  0
VERTEX
  8
72OFGO3D01_CO__GRIFF__F14
 10
0.0
 20
0.0
 30
0.0
 70
   128
 62
  251
 71
 -31
 72
 -31
 73
 -26
  0
VERTEX
  8
72OFGO3D01_CO__GRIFF__F14
 10
0.0
 20
0.0
 30
0.0
 70
   128
 62
  251
 71
 -31
 72
 -26
 73
 -22
  0
VERTEX
  8
72OFGO3D01_CO__GRIFF__F14
 10
0.0
 20
0.0
 30
0.0
 70
   128
 62
  251
 71
 -36
 72
  37
 73
 -33
  0
VERTEX
  8
72OFGO3D01_CO__GRIFF__F14
 10
0.0
 20
0.0
 30
0.0
 70
   128
 62
  251
 71
 -36
 72
  33
 73
  33
  0
VERTEX
  8
72OFGO3D01_CO__GRIFF__F14
 10
0.0
 20
0.0
 30
0.0
 70
   128
 62
  251
 71
 -33
 72
 -33
 73
 -37
  0
VERTEX
  8
72OFGO3D01_CO__GRIFF__F14
 10
0.0
 20
0.0
 30
0.0
 70
   128
 62
  251
 71
 -33
 72
 -37
 73
 -36
  0
VERTEX
  8
72OFGO3D01_CO__GRIFF__F14
 10
0.0
 20
0.0
 30
0.0
 70
   128
 62
  251
 71
 -36
 72
  51
 73
 -37
  0
VERTEX
  8
72OFGO3D01_CO__GRIFF__F14
 10
0.0
 20
0.0
 30
0.0
 70
   128
 62
  251
 71
 -36
 72
 -37
 73
 -37
  0
VERTEX
  8
72OFGO3D01_CO__GRIFF__F14
 10
0.0
 20
0.0
 30
0.0
 70
   128
 62
  251
 71
 -37
 72
 -37
 73
 -51
  0
VERTEX
  8
72OFGO3D01_CO__GRIFF__F14
 10
0.0
 20
0.0
 30
0.0
 70
   128
 62
  251
 71
 -37
 72
 -51
 73
 -36
  0
VERTEX
  8
72OFGO3D01_CO__GRIFF__F14
 10
0.0
 20
0.0
 30
0.0
 70
   128
 62
  251
 71
 -33
 72
 -51
 73
 -36
  0
VERTEX
  8
72OFGO3D01_CO__GRIFF__F14
 10
0.0
 20
0.0
 30
0.0
 70
   128
 62
  251
 71
 -33
 72
  36
 73
  36
  0
VERTEX
  8
72OFGO3D01_CO__GRIFF__F14
 10
0.0
 20
0.0
 30
0.0
 70
   128
 62
  251
 71
 -36
 72
 -36
 73
 -51
  0
VERTEX
  8
72OFGO3D01_CO__GRIFF__F14
 10
0.0
 20
0.0
 30
0.0
 70
   128
 62
  251
 71
 -36
 72
 -51
 73
 -33
  0
VERTEX
  8
72OFGO3D01_CO__GRIFF__F14
 10
0.0
 20
0.0
 30
0.0
 70
   128
 62
  251
 71
  33
 72
  37
 73
 -51
  0
VERTEX
  8
72OFGO3D01_CO__GRIFF__F14
 10
0.0
 20
0.0
 30
0.0
 70
   128
 62
  251
 71
 -33
 72
 -51
 73
 -51
  0
VERTEX
  8
72OFGO3D01_CO__GRIFF__F14
 10
0.0
 20
0.0
 30
0.0
 70
   128
 62
  251
 71
 -51
 72
 -51
 73
 -37
  0
VERTEX
  8
72OFGO3D01_CO__GRIFF__F14
 10
0.0
 20
0.0
 30
0.0
 70
   128
 62
  251
 71
 -51
 72
 -37
 73
 -33
  0
VERTEX
  8
72OFGO3D01_CO__GRIFF__F14
 10
0.0
 20
0.0
 30
0.0
 70
   128
 62
  251
 71
 -46
 72
 -41
 73
 -43
  0
VERTEX
  8
72OFGO3D01_CO__GRIFF__F14
 10
0.0
 20
0.0
 30
0.0
 70
   128
 62
  251
 71
 -46
 72
  43
 73
  43
  0
VERTEX
  8
72OFGO3D01_CO__GRIFF__F14
 10
0.0
 20
0.0
 30
0.0
 70
   128
 62
  251
 71
 -43
 72
 -43
 73
 -41
  0
VERTEX
  8
72OFGO3D01_CO__GRIFF__F14
 10
0.0
 20
0.0
 30
0.0
 70
   128
 62
  251
 71
 -43
 72
 -41
 73
 -46
  0
VERTEX
  8
72OFGO3D01_CO__GRIFF__F14
 10
0.0
 20
0.0
 30
0.0
 70
   128
 62
  251
 71
 -46
 72
  39
 73
 -41
  0
VERTEX
  8
72OFGO3D01_CO__GRIFF__F14
 10
0.0
 20
0.0
 30
0.0
 70
   128
 62
  251
 71
 -46
 72
 -41
 73
 -41
  0
VERTEX
  8
72OFGO3D01_CO__GRIFF__F14
 10
0.0
 20
0.0
 30
0.0
 70
   128
 62
  251
 71
 -41
 72
 -41
 73
 -39
  0
VERTEX
  8
72OFGO3D01_CO__GRIFF__F14
 10
0.0
 20
0.0
 30
0.0
 70
   128
 62
  251
 71
 -41
 72
 -39
 73
 -46
  0
VERTEX
  8
72OFGO3D01_CO__GRIFF__F14
 10
0.0
 20
0.0
 30
0.0
 70
   128
 62
  251
 71
 -43
 72
 -39
 73
 -46
  0
VERTEX
  8
72OFGO3D01_CO__GRIFF__F14
 10
0.0
 20
0.0
 30
0.0
 70
   128
 62
  251
 71
 -43
 72
  46
 73
  46
  0
VERTEX
  8
72OFGO3D01_CO__GRIFF__F14
 10
0.0
 20
0.0
 30
0.0
 70
   128
 62
  251
 71
 -46
 72
 -46
 73
 -39
  0
VERTEX
  8
72OFGO3D01_CO__GRIFF__F14
 10
0.0
 20
0.0
 30
0.0
 70
   128
 62
  251
 71
 -46
 72
 -39
 73
 -43
  0
VERTEX
  8
72OFGO3D01_CO__GRIFF__F14
 10
0.0
 20
0.0
 30
0.0
 70
   128
 62
  251
 71
 -43
 72
  41
 73
 -39
  0
VERTEX
  8
72OFGO3D01_CO__GRIFF__F14
 10
0.0
 20
0.0
 30
0.0
 70
   128
 62
  251
 71
 -43
 72
 -39
 73
 -39
  0
VERTEX
  8
72OFGO3D01_CO__GRIFF__F14
 10
0.0
 20
0.0
 30
0.0
 70
   128
 62
  251
 71
 -39
 72
 -39
 73
 -41
  0
VERTEX
  8
72OFGO3D01_CO__GRIFF__F14
 10
0.0
 20
0.0
 30
0.0
 70
   128
 62
  251
 71
 -39
 72
 -41
 73
 -43
  0
VERTEX
  8
72OFGO3D01_CO__GRIFF__F14
 10
0.0
 20
0.0
 30
0.0
 70
   128
 62
  251
 71
 -43
 72
 -48
 73
 -49
  0
VERTEX
  8
72OFGO3D01_CO__GRIFF__F14
 10
0.0
 20
0.0
 30
0.0
 70
   128
 62
  251
 71
 -43
 72
  49
 73
  49
  0
VERTEX
  8
72OFGO3D01_CO__GRIFF__F14
 10
0.0
 20
0.0
 30
0.0
 70
   128
 62
  251
 71
 -49
 72
 -49
 73
 -48
  0
VERTEX
  8
72OFGO3D01_CO__GRIFF__F14
 10
0.0
 20
0.0
 30
0.0
 70
   128
 62
  251
 71
 -49
 72
 -48
 73
 -43
  0
VERTEX
  8
72OFGO3D01_CO__GRIFF__F14
 10
0.0
 20
0.0
 30
0.0
 70
   128
 62
  251
 71
 -43
 72
  41
 73
 -48
  0
VERTEX
  8
72OFGO3D01_CO__GRIFF__F14
 10
0.0
 20
0.0
 30
0.0
 70
   128
 62
  251
 71
 -43
 72
 -48
 73
 -48
  0
VERTEX
  8
72OFGO3D01_CO__GRIFF__F14
 10
0.0
 20
0.0
 30
0.0
 70
   128
 62
  251
 71
 -48
 72
 -48
 73
 -41
  0
VERTEX
  8
72OFGO3D01_CO__GRIFF__F14
 10
0.0
 20
0.0
 30
0.0
 70
   128
 62
  251
 71
 -48
 72
 -41
 73
 -43
  0
VERTEX
  8
72OFGO3D01_CO__GRIFF__F14
 10
0.0
 20
0.0
 30
0.0
 70
   128
 62
  251
 71
 -49
 72
 -41
 73
 -43
  0
VERTEX
  8
72OFGO3D01_CO__GRIFF__F14
 10
0.0
 20
0.0
 30
0.0
 70
   128
 62
  251
 71
 -49
 72
  43
 73
  43
  0
VERTEX
  8
72OFGO3D01_CO__GRIFF__F14
 10
0.0
 20
0.0
 30
0.0
 70
   128
 62
  251
 71
 -43
 72
 -43
 73
 -41
  0
VERTEX
  8
72OFGO3D01_CO__GRIFF__F14
 10
0.0
 20
0.0
 30
0.0
 70
   128
 62
  251
 71
 -43
 72
 -41
 73
 -49
  0
VERTEX
  8
72OFGO3D01_CO__GRIFF__F14
 10
0.0
 20
0.0
 30
0.0
 70
   128
 62
  251
 71
 -49
 72
  48
 73
 -41
  0
VERTEX
  8
72OFGO3D01_CO__GRIFF__F14
 10
0.0
 20
0.0
 30
0.0
 70
   128
 62
  251
 71
 -49
 72
 -41
 73
 -41
  0
VERTEX
  8
72OFGO3D01_CO__GRIFF__F14
 10
0.0
 20
0.0
 30
0.0
 70
   128
 62
  251
 71
 -41
 72
 -41
 73
 -48
  0
VERTEX
  8
72OFGO3D01_CO__GRIFF__F14
 10
0.0
 20
0.0
 30
0.0
 70
   128
 62
  251
 71
 -41
 72
 -48
 73
 -49
  0
VERTEX
  8
72OFGO3D01_CO__GRIFF__F14
 10
0.0
 20
0.0
 30
0.0
 70
   128
 62
  251
 71
 -48
 72
 -51
 73
 -36
  0
VERTEX
  8
72OFGO3D01_CO__GRIFF__F14
 10
0.0
 20
0.0
 30
0.0
 70
   128
 62
  251
 71
 -48
 72
  36
 73
  36
  0
VERTEX
  8
72OFGO3D01_CO__GRIFF__F14
 10
0.0
 20
0.0
 30
0.0
 70
   128
 62
  251
 71
 -36
 72
 -36
 73
 -51
  0
VERTEX
  8
72OFGO3D01_CO__GRIFF__F14
 10
0.0
 20
0.0
 30
0.0
 70
   128
 62
  251
 71
 -36
 72
 -51
 73
 -48
  0
VERTEX
  8
72OFGO3D01_CO__GRIFF__F14
 10
0.0
 20
0.0
 30
0.0
 70
   128
 62
  251
 71
 -48
 72
  49
 73
 -51
  0
VERTEX
  8
72OFGO3D01_CO__GRIFF__F14
 10
0.0
 20
0.0
 30
0.0
 70
   128
 62
  251
 71
 -48
 72
 -51
 73
 -51
  0
VERTEX
  8
72OFGO3D01_CO__GRIFF__F14
 10
0.0
 20
0.0
 30
0.0
 70
   128
 62
  251
 71
 -51
 72
 -51
 73
 -49
  0
VERTEX
  8
72OFGO3D01_CO__GRIFF__F14
 10
0.0
 20
0.0
 30
0.0
 70
   128
 62
  251
 71
 -51
 72
 -49
 73
 -48
  0
VERTEX
  8
72OFGO3D01_CO__GRIFF__F14
 10
0.0
 20
0.0
 30
0.0
 70
   128
 62
  251
 71
 -36
 72
 -49
 73
 -48
  0
VERTEX
  8
72OFGO3D01_CO__GRIFF__F14
 10
0.0
 20
0.0
 30
0.0
 70
   128
 62
  251
 71
 -36
 72
  48
 73
  48
  0
VERTEX
  8
72OFGO3D01_CO__GRIFF__F14
 10
0.0
 20
0.0
 30
0.0
 70
   128
 62
  251
 71
 -48
 72
 -48
 73
 -49
  0
VERTEX
  8
72OFGO3D01_CO__GRIFF__F14
 10
0.0
 20
0.0
 30
0.0
 70
   128
 62
  251
 71
 -48
 72
 -49
 73
 -36
  0
VERTEX
  8
72OFGO3D01_CO__GRIFF__F14
 10
0.0
 20
0.0
 30
0.0
 70
   128
 62
  251
 71
 -36
 72
  51
 73
 -49
  0
VERTEX
  8
72OFGO3D01_CO__GRIFF__F14
 10
0.0
 20
0.0
 30
0.0
 70
   128
 62
  251
 71
 -36
 72
 -49
 73
 -49
  0
VERTEX
  8
72OFGO3D01_CO__GRIFF__F14
 10
0.0
 20
0.0
 30
0.0
 70
   128
 62
  251
 71
 -49
 72
 -49
 73
 -51
  0
VERTEX
  8
72OFGO3D01_CO__GRIFF__F14
 10
0.0
 20
0.0
 30
0.0
 70
   128
 62
  251
 71
 -49
 72
 -51
 73
 -36
  0
VERTEX
  8
72OFGO3D01_CO__GRIFF__F14
 10
0.0
 20
0.0
 30
0.0
 70
   128
 62
  251
 71
 -5
 72
 -39
 73
 -46
  0
VERTEX
  8
72OFGO3D01_CO__GRIFF__F14
 10
0.0
 20
0.0
 30
0.0
 70
   128
 62
  251
 71
 -5
 72
  46
 73
  46
  0
VERTEX
  8
72OFGO3D01_CO__GRIFF__F14
 10
0.0
 20
0.0
 30
0.0
 70
   128
 62
  251
 71
 -46
 72
 -46
 73
 -39
  0
VERTEX
  8
72OFGO3D01_CO__GRIFF__F14
 10
0.0
 20
0.0
 30
0.0
 70
   128
 62
  251
 71
 -46
 72
 -39
 73
 -5
  0
VERTEX
  8
72OFGO3D01_CO__GRIFF__F14
 10
0.0
 20
0.0
 30
0.0
 70
   128
 62
  251
 71
 -5
 72
  3
 73
 -39
  0
VERTEX
  8
72OFGO3D01_CO__GRIFF__F14
 10
0.0
 20
0.0
 30
0.0
 70
   128
 62
  251
 71
 -5
 72
 -39
 73
 -39
  0
VERTEX
  8
72OFGO3D01_CO__GRIFF__F14
 10
0.0
 20
0.0
 30
0.0
 70
   128
 62
  251
 71
 -39
 72
 -39
 73
 -3
  0
VERTEX
  8
72OFGO3D01_CO__GRIFF__F14
 10
0.0
 20
0.0
 30
0.0
 70
   128
 62
  251
 71
 -39
 72
 -3
 73
 -5
  0
VERTEX
  8
72OFGO3D01_CO__GRIFF__F14
 10
0.0
 20
0.0
 30
0.0
 70
   128
 62
  251
 71
 -46
 72
 -3
 73
 -5
  0
VERTEX
  8
72OFGO3D01_CO__GRIFF__F14
 10
0.0
 20
0.0
 30
0.0
 70
   128
 62
  251
 71
 -46
 72
  5
 73
  5
  0
VERTEX
  8
72OFGO3D01_CO__GRIFF__F14
 10
0.0
 20
0.0
 30
0.0
 70
   128
 62
  251
 71
 -5
 72
 -5
 73
 -3
  0
VERTEX
  8
72OFGO3D01_CO__GRIFF__F14
 10
0.0
 20
0.0
 30
0.0
 70
   128
 62
  251
 71
 -5
 72
 -3
 73
 -46
  0
VERTEX
  8
72OFGO3D01_CO__GRIFF__F14
 10
0.0
 20
0.0
 30
0.0
 70
   128
 62
  251
 71
 -46
 72
  39
 73
 -3
  0
VERTEX
  8
72OFGO3D01_CO__GRIFF__F14
 10
0.0
 20
0.0
 30
0.0
 70
   128
 62
  251
 71
 -46
 72
 -3
 73
 -3
  0
VERTEX
  8
72OFGO3D01_CO__GRIFF__F14
 10
0.0
 20
0.0
 30
0.0
 70
   128
 62
  251
 71
 -3
 72
 -3
 73
 -39
  0
VERTEX
  8
72OFGO3D01_CO__GRIFF__F14
 10
0.0
 20
0.0
 30
0.0
 70
   128
 62
  251
 71
 -3
 72
 -39
 73
 -46
  0
VERTEX
  8
72OFGO3D01_CO__GRIFF__F14
 10
0.0
 20
0.0
 30
0.0
 70
   128
 62
  251
 71
 -6
 72
 -2
 73
 -7
  0
VERTEX
  8
72OFGO3D01_CO__GRIFF__F14
 10
0.0
 20
0.0
 30
0.0
 70
   128
 62
  251
 71
 -6
 72
  7
 73
  7
  0
VERTEX
  8
72OFGO3D01_CO__GRIFF__F14
 10
0.0
 20
0.0
 30
0.0
 70
   128
 62
  251
 71
 -7
 72
 -7
 73
 -2
  0
VERTEX
  8
72OFGO3D01_CO__GRIFF__F14
 10
0.0
 20
0.0
 30
0.0
 70
   128
 62
  251
 71
 -7
 72
 -2
 73
 -6
  0
VERTEX
  8
72OFGO3D01_CO__GRIFF__F14
 10
0.0
 20
0.0
 30
0.0
 70
   128
 62
  251
 71
 -6
 72
  4
 73
 -2
  0
VERTEX
  8
72OFGO3D01_CO__GRIFF__F14
 10
0.0
 20
0.0
 30
0.0
 70
   128
 62
  251
 71
 -6
 72
 -2
 73
 -2
  0
VERTEX
  8
72OFGO3D01_CO__GRIFF__F14
 10
0.0
 20
0.0
 30
0.0
 70
   128
 62
  251
 71
 -2
 72
 -2
 73
 -4
  0
VERTEX
  8
72OFGO3D01_CO__GRIFF__F14
 10
0.0
 20
0.0
 30
0.0
 70
   128
 62
  251
 71
 -2
 72
 -4
 73
 -6
  0
VERTEX
  8
72OFGO3D01_CO__GRIFF__F14
 10
0.0
 20
0.0
 30
0.0
 70
   128
 62
  251
 71
 -7
 72
 -4
 73
 -6
  0
VERTEX
  8
72OFGO3D01_CO__GRIFF__F14
 10
0.0
 20
0.0
 30
0.0
 70
   128
 62
  251
 71
 -7
 72
  6
 73
  6
  0
VERTEX
  8
72OFGO3D01_CO__GRIFF__F14
 10
0.0
 20
0.0
 30
0.0
 70
   128
 62
  251
 71
 -6
 72
 -6
 73
 -4
  0
VERTEX
  8
72OFGO3D01_CO__GRIFF__F14
 10
0.0
 20
0.0
 30
0.0
 70
   128
 62
  251
 71
 -6
 72
 -4
 73
 -7
  0
VERTEX
  8
72OFGO3D01_CO__GRIFF__F14
 10
0.0
 20
0.0
 30
0.0
 70
   128
 62
  251
 71
 -7
 72
  2
 73
 -4
  0
VERTEX
  8
72OFGO3D01_CO__GRIFF__F14
 10
0.0
 20
0.0
 30
0.0
 70
   128
 62
  251
 71
 -7
 72
 -4
 73
 -4
  0
VERTEX
  8
72OFGO3D01_CO__GRIFF__F14
 10
0.0
 20
0.0
 30
0.0
 70
   128
 62
  251
 71
 -4
 72
 -4
 73
 -2
  0
VERTEX
  8
72OFGO3D01_CO__GRIFF__F14
 10
0.0
 20
0.0
 30
0.0
 70
   128
 62
  251
 71
 -4
 72
 -2
 73
 -7
  0
VERTEX
  8
72OFGO3D01_CO__GRIFF__F14
 10
0.0
 20
0.0
 30
0.0
 70
   128
 62
  251
 71
 -10
 72
 -15
 73
 -11
  0
VERTEX
  8
72OFGO3D01_CO__GRIFF__F14
 10
0.0
 20
0.0
 30
0.0
 70
   128
 62
  251
 71
 -10
 72
  11
 73
  11
  0
VERTEX
  8
72OFGO3D01_CO__GRIFF__F14
 10
0.0
 20
0.0
 30
0.0
 70
   128
 62
  251
 71
 -11
 72
 -11
 73
 -15
  0
VERTEX
  8
72OFGO3D01_CO__GRIFF__F14
 10
0.0
 20
0.0
 30
0.0
 70
   128
 62
  251
 71
 -11
 72
 -15
 73
 -10
  0
VERTEX
  8
72OFGO3D01_CO__GRIFF__F14
 10
0.0
 20
0.0
 30
0.0
 70
   128
 62
  251
 71
 -10
 72
  14
 73
 -15
  0
VERTEX
  8
72OFGO3D01_CO__GRIFF__F14
 10
0.0
 20
0.0
 30
0.0
 70
   128
 62
  251
 71
 -10
 72
 -15
 73
 -15
  0
VERTEX
  8
72OFGO3D01_CO__GRIFF__F14
 10
0.0
 20
0.0
 30
0.0
 70
   128
 62
  251
 71
 -15
 72
 -15
 73
 -14
  0
VERTEX
  8
72OFGO3D01_CO__GRIFF__F14
 10
0.0
 20
0.0
 30
0.0
 70
   128
 62
  251
 71
 -15
 72
 -14
 73
 -10
  0
VERTEX
  8
72OFGO3D01_CO__GRIFF__F14
 10
0.0
 20
0.0
 30
0.0
 70
   128
 62
  251
 71
 -11
 72
 -14
 73
 -10
  0
VERTEX
  8
72OFGO3D01_CO__GRIFF__F14
 10
0.0
 20
0.0
 30
0.0
 70
   128
 62
  251
 71
 -11
 72
  10
 73
  10
  0
VERTEX
  8
72OFGO3D01_CO__GRIFF__F14
 10
0.0
 20
0.0
 30
0.0
 70
   128
 62
  251
 71
 -10
 72
 -10
 73
 -14
  0
VERTEX
  8
72OFGO3D01_CO__GRIFF__F14
 10
0.0
 20
0.0
 30
0.0
 70
   128
 62
  251
 71
 -10
 72
 -14
 73
 -11
  0
VERTEX
  8
72OFGO3D01_CO__GRIFF__F14
 10
0.0
 20
0.0
 30
0.0
 70
   128
 62
  251
 71
 -11
 72
  15
 73
 -14
  0
VERTEX
  8
72OFGO3D01_CO__GRIFF__F14
 10
0.0
 20
0.0
 30
0.0
 70
   128
 62
  251
 71
 -11
 72
 -14
 73
 -14
  0
VERTEX
  8
72OFGO3D01_CO__GRIFF__F14
 10
0.0
 20
0.0
 30
0.0
 70
   128
 62
  251
 71
 -14
 72
 -14
 73
 -15
  0
VERTEX
  8
72OFGO3D01_CO__GRIFF__F14
 10
0.0
 20
0.0
 30
0.0
 70
   128
 62
  251
 71
 -14
 72
 -15
 73
 -11
  0
VERTEX
  8
72OFGO3D01_CO__GRIFF__F14
 10
0.0
 20
0.0
 30
0.0
 70
   128
 62
  251
 71
 -20
 72
 -4
 73
 -6
  0
VERTEX
  8
72OFGO3D01_CO__GRIFF__F14
 10
0.0
 20
0.0
 30
0.0
 70
   128
 62
  251
 71
 -20
 72
  6
 73
  6
  0
VERTEX
  8
72OFGO3D01_CO__GRIFF__F14
 10
0.0
 20
0.0
 30
0.0
 70
   128
 62
  251
 71
 -6
 72
 -6
 73
 -4
  0
VERTEX
  8
72OFGO3D01_CO__GRIFF__F14
 10
0.0
 20
0.0
 30
0.0
 70
   128
 62
  251
 71
 -6
 72
 -4
 73
 -20
  0
VERTEX
  8
72OFGO3D01_CO__GRIFF__F14
 10
0.0
 20
0.0
 30
0.0
 70
   128
 62
  251
 71
 -20
 72
  17
 73
 -4
  0
VERTEX
  8
72OFGO3D01_CO__GRIFF__F14
 10
0.0
 20
0.0
 30
0.0
 70
   128
 62
  251
 71
 -20
 72
 -4
 73
 -4
  0
VERTEX
  8
72OFGO3D01_CO__GRIFF__F14
 10
0.0
 20
0.0
 30
0.0
 70
   128
 62
  251
 71
 -4
 72
 -4
 73
 -17
  0
VERTEX
  8
72OFGO3D01_CO__GRIFF__F14
 10
0.0
 20
0.0
 30
0.0
 70
   128
 62
  251
 71
 -4
 72
 -17
 73
 -20
  0
VERTEX
  8
72OFGO3D01_CO__GRIFF__F14
 10
0.0
 20
0.0
 30
0.0
 70
   128
 62
  251
 71
 -6
 72
 -17
 73
 -20
  0
VERTEX
  8
72OFGO3D01_CO__GRIFF__F14
 10
0.0
 20
0.0
 30
0.0
 70
   128
 62
  251
 71
 -6
 72
  20
 73
  20
  0
VERTEX
  8
72OFGO3D01_CO__GRIFF__F14
 10
0.0
 20
0.0
 30
0.0
 70
   128
 62
  251
 71
 -20
 72
 -20
 73
 -17
  0
VERTEX
  8
72OFGO3D01_CO__GRIFF__F14
 10
0.0
 20
0.0
 30
0.0
 70
   128
 62
  251
 71
 -20
 72
 -17
 73
 -6
  0
VERTEX
  8
72OFGO3D01_CO__GRIFF__F14
 10
0.0
 20
0.0
 30
0.0
 70
   128
 62
  251
 71
 -6
 72
  4
 73
 -17
  0
VERTEX
  8
72OFGO3D01_CO__GRIFF__F14
 10
0.0
 20
0.0
 30
0.0
 70
   128
 62
  251
 71
 -6
 72
 -17
 73
 -17
  0
VERTEX
  8
72OFGO3D01_CO__GRIFF__F14
 10
0.0
 20
0.0
 30
0.0
 70
   128
 62
  251
 71
 -17
 72
 -17
 73
 -4
  0
VERTEX
  8
72OFGO3D01_CO__GRIFF__F14
 10
0.0
 20
0.0
 30
0.0
 70
   128
 62
  251
 71
 -17
 72
 -4
 73
 -6
  0
VERTEX
  8
72OFGO3D01_CO__GRIFF__F14
 10
0.0
 20
0.0
 30
0.0
 70
   128
 62
  251
 71
 -11
 72
 -17
 73
 -20
  0
VERTEX
  8
72OFGO3D01_CO__GRIFF__F14
 10
0.0
 20
0.0
 30
0.0
 70
   128
 62
  251
 71
 -11
 72
  20
 73
  20
  0
VERTEX
  8
72OFGO3D01_CO__GRIFF__F14
 10
0.0
 20
0.0
 30
0.0
 70
   128
 62
  251
 71
 -20
 72
 -20
 73
 -17
  0
VERTEX
  8
72OFGO3D01_CO__GRIFF__F14
 10
0.0
 20
0.0
 30
0.0
 70
   128
 62
  251
 71
 -20
 72
 -17
 73
 -11
  0
VERTEX
  8
72OFGO3D01_CO__GRIFF__F14
 10
0.0
 20
0.0
 30
0.0
 70
   128
 62
  251
 71
 -11
 72
  15
 73
 -17
  0
VERTEX
  8
72OFGO3D01_CO__GRIFF__F14
 10
0.0
 20
0.0
 30
0.0
 70
   128
 62
  251
 71
 -11
 72
 -17
 73
 -17
  0
VERTEX
  8
72OFGO3D01_CO__GRIFF__F14
 10
0.0
 20
0.0
 30
0.0
 70
   128
 62
  251
 71
 -17
 72
 -17
 73
 -15
  0
VERTEX
  8
72OFGO3D01_CO__GRIFF__F14
 10
0.0
 20
0.0
 30
0.0
 70
   128
 62
  251
 71
 -17
 72
 -15
 73
 -11
  0
VERTEX
  8
72OFGO3D01_CO__GRIFF__F14
 10
0.0
 20
0.0
 30
0.0
 70
   128
 62
  251
 71
 -20
 72
 -15
 73
 -11
  0
VERTEX
  8
72OFGO3D01_CO__GRIFF__F14
 10
0.0
 20
0.0
 30
0.0
 70
   128
 62
  251
 71
 -20
 72
  11
 73
  11
  0
VERTEX
  8
72OFGO3D01_CO__GRIFF__F14
 10
0.0
 20
0.0
 30
0.0
 70
   128
 62
  251
 71
 -11
 72
 -11
 73
 -15
  0
VERTEX
  8
72OFGO3D01_CO__GRIFF__F14
 10
0.0
 20
0.0
 30
0.0
 70
   128
 62
  251
 71
 -11
 72
 -15
 73
 -20
  0
VERTEX
  8
72OFGO3D01_CO__GRIFF__F14
 10
0.0
 20
0.0
 30
0.0
 70
   128
 62
  251
 71
 -20
 72
  17
 73
 -15
  0
VERTEX
  8
72OFGO3D01_CO__GRIFF__F14
 10
0.0
 20
0.0
 30
0.0
 70
   128
 62
  251
 71
 -20
 72
 -15
 73
 -15
  0
VERTEX
  8
72OFGO3D01_CO__GRIFF__F14
 10
0.0
 20
0.0
 30
0.0
 70
   128
 62
  251
 71
 -15
 72
 -15
 73
 -17
  0
VERTEX
  8
72OFGO3D01_CO__GRIFF__F14
 10
0.0
 20
0.0
 30
0.0
 70
   128
 62
  251
 71
 -15
 72
 -17
 73
 -20
  0
VERTEX
  8
72OFGO3D01_CO__GRIFF__F14
 10
0.0
 20
0.0
 30
0.0
 70
   128
 62
  251
 71
 -24
 72
 -28
 73
 -21
  0
VERTEX
  8
72OFGO3D01_CO__GRIFF__F14
 10
0.0
 20
0.0
 30
0.0
 70
   128
 62
  251
 71
 -24
 72
  21
 73
  21
  0
VERTEX
  8
72OFGO3D01_CO__GRIFF__F14
 10
0.0
 20
0.0
 30
0.0
 70
   128
 62
  251
 71
 -21
 72
 -21
 73
 -28
  0
VERTEX
  8
72OFGO3D01_CO__GRIFF__F14
 10
0.0
 20
0.0
 30
0.0
 70
   128
 62
  251
 71
 -21
 72
 -28
 73
 -24
  0
VERTEX
  8
72OFGO3D01_CO__GRIFF__F14
 10
0.0
 20
0.0
 30
0.0
 70
   128
 62
  251
 71
 -24
 72
  29
 73
 -28
  0
VERTEX
  8
72OFGO3D01_CO__GRIFF__F14
 10
0.0
 20
0.0
 30
0.0
 70
   128
 62
  251
 71
 -24
 72
 -28
 73
 -28
  0
VERTEX
  8
72OFGO3D01_CO__GRIFF__F14
 10
0.0
 20
0.0
 30
0.0
 70
   128
 62
  251
 71
 -28
 72
 -28
 73
 -29
  0
VERTEX
  8
72OFGO3D01_CO__GRIFF__F14
 10
0.0
 20
0.0
 30
0.0
 70
   128
 62
  251
 71
 -28
 72
 -29
 73
 -24
  0
VERTEX
  8
72OFGO3D01_CO__GRIFF__F14
 10
0.0
 20
0.0
 30
0.0
 70
   128
 62
  251
 71
 -21
 72
 -29
 73
 -24
  0
VERTEX
  8
72OFGO3D01_CO__GRIFF__F14
 10
0.0
 20
0.0
 30
0.0
 70
   128
 62
  251
 71
 -21
 72
  24
 73
  24
  0
VERTEX
  8
72OFGO3D01_CO__GRIFF__F14
 10
0.0
 20
0.0
 30
0.0
 70
   128
 62
  251
 71
 -24
 72
 -24
 73
 -29
  0
VERTEX
  8
72OFGO3D01_CO__GRIFF__F14
 10
0.0
 20
0.0
 30
0.0
 70
   128
 62
  251
 71
 -24
 72
 -29
 73
 -21
  0
VERTEX
  8
72OFGO3D01_CO__GRIFF__F14
 10
0.0
 20
0.0
 30
0.0
 70
   128
 62
  251
 71
 -21
 72
  28
 73
 -29
  0
VERTEX
  8
72OFGO3D01_CO__GRIFF__F14
 10
0.0
 20
0.0
 30
0.0
 70
   128
 62
  251
 71
 -21
 72
 -29
 73
 -29
  0
VERTEX
  8
72OFGO3D01_CO__GRIFF__F14
 10
0.0
 20
0.0
 30
0.0
 70
   128
 62
  251
 71
 -29
 72
 -29
 73
 -28
  0
VERTEX
  8
72OFGO3D01_CO__GRIFF__F14
 10
0.0
 20
0.0
 30
0.0
 70
   128
 62
  251
 71
 -29
 72
 -28
 73
 -21
  0
VERTEX
  8
72OFGO3D01_CO__GRIFF__F14
 10
0.0
 20
0.0
 30
0.0
 70
   128
 62
  251
 71
 -21
 72
 -14
 73
 -10
  0
VERTEX
  8
72OFGO3D01_CO__GRIFF__F14
 10
0.0
 20
0.0
 30
0.0
 70
   128
 62
  251
 71
 -21
 72
  10
 73
  10
  0
VERTEX
  8
72OFGO3D01_CO__GRIFF__F14
 10
0.0
 20
0.0
 30
0.0
 70
   128
 62
  251
 71
 -10
 72
 -10
 73
 -14
  0
VERTEX
  8
72OFGO3D01_CO__GRIFF__F14
 10
0.0
 20
0.0
 30
0.0
 70
   128
 62
  251
 71
 -10
 72
 -14
 73
 -21
  0
VERTEX
  8
72OFGO3D01_CO__GRIFF__F14
 10
0.0
 20
0.0
 30
0.0
 70
   128
 62
  251
 71
 -21
 72
  28
 73
 -14
  0
VERTEX
  8
72OFGO3D01_CO__GRIFF__F14
 10
0.0
 20
0.0
 30
0.0
 70
   128
 62
  251
 71
 -21
 72
 -14
 73
 -14
  0
VERTEX
  8
72OFGO3D01_CO__GRIFF__F14
 10
0.0
 20
0.0
 30
0.0
 70
   128
 62
  251
 71
 -14
 72
 -14
 73
 -28
  0
VERTEX
  8
72OFGO3D01_CO__GRIFF__F14
 10
0.0
 20
0.0
 30
0.0
 70
   128
 62
  251
 71
 -14
 72
 -28
 73
 -21
  0
VERTEX
  8
72OFGO3D01_CO__GRIFF__F14
 10
0.0
 20
0.0
 30
0.0
 70
   128
 62
  251
 71
 -10
 72
 -28
 73
 -21
  0
VERTEX
  8
72OFGO3D01_CO__GRIFF__F14
 10
0.0
 20
0.0
 30
0.0
 70
   128
 62
  251
 71
 -10
 72
  21
 73
  21
  0
VERTEX
  8
72OFGO3D01_CO__GRIFF__F14
 10
0.0
 20
0.0
 30
0.0
 70
   128
 62
  251
 71
 -21
 72
 -21
 73
 -28
  0
VERTEX
  8
72OFGO3D01_CO__GRIFF__F14
 10
0.0
 20
0.0
 30
0.0
 70
   128
 62
  251
 71
 -21
 72
 -28
 73
 -10
  0
VERTEX
  8
72OFGO3D01_CO__GRIFF__F14
 10
0.0
 20
0.0
 30
0.0
 70
   128
 62
  251
 71
 -10
 72
  14
 73
 -28
  0
VERTEX
  8
72OFGO3D01_CO__GRIFF__F14
 10
0.0
 20
0.0
 30
0.0
 70
   128
 62
  251
 71
 -10
 72
 -28
 73
 -28
  0
VERTEX
  8
72OFGO3D01_CO__GRIFF__F14
 10
0.0
 20
0.0
 30
0.0
 70
   128
 62
  251
 71
 -28
 72
 -28
 73
 -14
  0
VERTEX
  8
72OFGO3D01_CO__GRIFF__F14
 10
0.0
 20
0.0
 30
0.0
 70
   128
 62
  251
 71
 -28
 72
 -14
 73
 -10
  0
VERTEX
  8
72OFGO3D01_CO__GRIFF__F14
 10
0.0
 20
0.0
 30
0.0
 70
   128
 62
  251
 71
 -29
 72
  25
 73
 -24
  0
VERTEX
  8
72OFGO3D01_CO__GRIFF__F14
 10
0.0
 20
0.0
 30
0.0
 70
   128
 62
  251
 71
 -29
 72
 -24
 73
 -24
  0
VERTEX
  8
72OFGO3D01_CO__GRIFF__F14
 10
0.0
 20
0.0
 30
0.0
 70
   128
 62
  251
 71
 -24
 72
 -24
 73
 -25
  0
VERTEX
  8
72OFGO3D01_CO__GRIFF__F14
 10
0.0
 20
0.0
 30
0.0
 70
   128
 62
  251
 71
 -24
 72
 -25
 73
 -29
  0
VERTEX
  8
72OFGO3D01_CO__GRIFF__F14
 10
0.0
 20
0.0
 30
0.0
 70
   128
 62
  251
 71
  29
 72
  32
 73
 -25
  0
VERTEX
  8
72OFGO3D01_CO__GRIFF__F14
 10
0.0
 20
0.0
 30
0.0
 70
   128
 62
  251
 71
 -29
 72
 -25
 73
 -25
  0
VERTEX
  8
72OFGO3D01_CO__GRIFF__F14
 10
0.0
 20
0.0
 30
0.0
 70
   128
 62
  251
 71
 -25
 72
 -25
 73
 -32
  0
VERTEX
  8
72OFGO3D01_CO__GRIFF__F14
 10
0.0
 20
0.0
 30
0.0
 70
   128
 62
  251
 71
 -25
 72
 -32
 73
 -29
  0
VERTEX
  8
72OFGO3D01_CO__GRIFF__F14
 10
0.0
 20
0.0
 30
0.0
 70
   128
 62
  251
 71
 -24
 72
  32
 73
 -29
  0
VERTEX
  8
72OFGO3D01_CO__GRIFF__F14
 10
0.0
 20
0.0
 30
0.0
 70
   128
 62
  251
 71
 -24
 72
 -29
 73
 -29
  0
VERTEX
  8
72OFGO3D01_CO__GRIFF__F14
 10
0.0
 20
0.0
 30
0.0
 70
   128
 62
  251
 71
 -29
 72
 -29
 73
 -32
  0
VERTEX
  8
72OFGO3D01_CO__GRIFF__F14
 10
0.0
 20
0.0
 30
0.0
 70
   128
 62
  251
 71
 -29
 72
 -32
 73
 -24
  0
VERTEX
  8
72OFGO3D01_CO__GRIFF__F14
 10
0.0
 20
0.0
 30
0.0
 70
   128
 62
  251
 71
  24
 72
  25
 73
 -32
  0
VERTEX
  8
72OFGO3D01_CO__GRIFF__F14
 10
0.0
 20
0.0
 30
0.0
 70
   128
 62
  251
 71
 -24
 72
 -32
 73
 -32
  0
VERTEX
  8
72OFGO3D01_CO__GRIFF__F14
 10
0.0
 20
0.0
 30
0.0
 70
   128
 62
  251
 71
 -32
 72
 -32
 73
 -25
  0
VERTEX
  8
72OFGO3D01_CO__GRIFF__F14
 10
0.0
 20
0.0
 30
0.0
 70
   128
 62
  251
 71
 -32
 72
 -25
 73
 -24
  0
VERTEX
  8
72OFGO3D01_CO__GRIFF__F14
 10
0.0
 20
0.0
 30
0.0
 70
   128
 62
  251
 71
 -34
 72
  38
 73
 -35
  0
VERTEX
  8
72OFGO3D01_CO__GRIFF__F14
 10
0.0
 20
0.0
 30
0.0
 70
   128
 62
  251
 71
 -34
 72
  35
 73
  35
  0
VERTEX
  8
72OFGO3D01_CO__GRIFF__F14
 10
0.0
 20
0.0
 30
0.0
 70
   128
 62
  251
 71
 -35
 72
 -35
 73
 -38
  0
VERTEX
  8
72OFGO3D01_CO__GRIFF__F14
 10
0.0
 20
0.0
 30
0.0
 70
   128
 62
  251
 71
 -35
 72
 -38
 73
 -34
  0
VERTEX
  8
72OFGO3D01_CO__GRIFF__F14
 10
0.0
 20
0.0
 30
0.0
 70
   128
 62
  251
 71
 -34
 72
  52
 73
 -38
  0
VERTEX
  8
72OFGO3D01_CO__GRIFF__F14
 10
0.0
 20
0.0
 30
0.0
 70
   128
 62
  251
 71
 -34
 72
 -38
 73
 -38
  0
VERTEX
  8
72OFGO3D01_CO__GRIFF__F14
 10
0.0
 20
0.0
 30
0.0
 70
   128
 62
  251
 71
 -38
 72
 -38
 73
 -52
  0
VERTEX
  8
72OFGO3D01_CO__GRIFF__F14
 10
0.0
 20
0.0
 30
0.0
 70
   128
 62
  251
 71
 -38
 72
 -52
 73
 -34
  0
VERTEX
  8
72OFGO3D01_CO__GRIFF__F14
 10
0.0
 20
0.0
 30
0.0
 70
   128
 62
  251
 71
 -35
 72
 -52
 73
 -34
  0
VERTEX
  8
72OFGO3D01_CO__GRIFF__F14
 10
0.0
 20
0.0
 30
0.0
 70
   128
 62
  251
 71
 -35
 72
  34
 73
  34
  0
VERTEX
  8
72OFGO3D01_CO__GRIFF__F14
 10
0.0
 20
0.0
 30
0.0
 70
   128
 62
  251
 71
 -34
 72
 -34
 73
 -52
  0
VERTEX
  8
72OFGO3D01_CO__GRIFF__F14
 10
0.0
 20
0.0
 30
0.0
 70
   128
 62
  251
 71
 -34
 72
 -52
 73
 -35
  0
VERTEX
  8
72OFGO3D01_CO__GRIFF__F14
 10
0.0
 20
0.0
 30
0.0
 70
   128
 62
  251
 71
  35
 72
  38
 73
 -52
  0
VERTEX
  8
72OFGO3D01_CO__GRIFF__F14
 10
0.0
 20
0.0
 30
0.0
 70
   128
 62
  251
 71
 -35
 72
 -52
 73
 -52
  0
VERTEX
  8
72OFGO3D01_CO__GRIFF__F14
 10
0.0
 20
0.0
 30
0.0
 70
   128
 62
  251
 71
 -52
 72
 -52
 73
 -38
  0
VERTEX
  8
72OFGO3D01_CO__GRIFF__F14
 10
0.0
 20
0.0
 30
0.0
 70
   128
 62
  251
 71
 -52
 72
 -38
 73
 -35
  0
VERTEX
  8
72OFGO3D01_CO__GRIFF__F14
 10
0.0
 20
0.0
 30
0.0
 70
   128
 62
  251
 71
 -44
 72
 -40
 73
 -45
  0
VERTEX
  8
72OFGO3D01_CO__GRIFF__F14
 10
0.0
 20
0.0
 30
0.0
 70
   128
 62
  251
 71
 -44
 72
  45
 73
  45
  0
VERTEX
  8
72OFGO3D01_CO__GRIFF__F14
 10
0.0
 20
0.0
 30
0.0
 70
   128
 62
  251
 71
 -45
 72
 -45
 73
 -40
  0
VERTEX
  8
72OFGO3D01_CO__GRIFF__F14
 10
0.0
 20
0.0
 30
0.0
 70
   128
 62
  251
 71
 -45
 72
 -40
 73
 -44
  0
VERTEX
  8
72OFGO3D01_CO__GRIFF__F14
 10
0.0
 20
0.0
 30
0.0
 70
   128
 62
  251
 71
 -44
 72
  42
 73
 -40
  0
VERTEX
  8
72OFGO3D01_CO__GRIFF__F14
 10
0.0
 20
0.0
 30
0.0
 70
   128
 62
  251
 71
 -44
 72
 -40
 73
 -40
  0
VERTEX
  8
72OFGO3D01_CO__GRIFF__F14
 10
0.0
 20
0.0
 30
0.0
 70
   128
 62
  251
 71
 -40
 72
 -40
 73
 -42
  0
VERTEX
  8
72OFGO3D01_CO__GRIFF__F14
 10
0.0
 20
0.0
 30
0.0
 70
   128
 62
  251
 71
 -40
 72
 -42
 73
 -44
  0
VERTEX
  8
72OFGO3D01_CO__GRIFF__F14
 10
0.0
 20
0.0
 30
0.0
 70
   128
 62
  251
 71
 -45
 72
 -42
 73
 -44
  0
VERTEX
  8
72OFGO3D01_CO__GRIFF__F14
 10
0.0
 20
0.0
 30
0.0
 70
   128
 62
  251
 71
 -45
 72
  44
 73
  44
  0
VERTEX
  8
72OFGO3D01_CO__GRIFF__F14
 10
0.0
 20
0.0
 30
0.0
 70
   128
 62
  251
 71
 -44
 72
 -44
 73
 -42
  0
VERTEX
  8
72OFGO3D01_CO__GRIFF__F14
 10
0.0
 20
0.0
 30
0.0
 70
   128
 62
  251
 71
 -44
 72
 -42
 73
 -45
  0
VERTEX
  8
72OFGO3D01_CO__GRIFF__F14
 10
0.0
 20
0.0
 30
0.0
 70
   128
 62
  251
 71
 -45
 72
  40
 73
 -42
  0
VERTEX
  8
72OFGO3D01_CO__GRIFF__F14
 10
0.0
 20
0.0
 30
0.0
 70
   128
 62
  251
 71
 -45
 72
 -42
 73
 -42
  0
VERTEX
  8
72OFGO3D01_CO__GRIFF__F14
 10
0.0
 20
0.0
 30
0.0
 70
   128
 62
  251
 71
 -42
 72
 -42
 73
 -40
  0
VERTEX
  8
72OFGO3D01_CO__GRIFF__F14
 10
0.0
 20
0.0
 30
0.0
 70
   128
 62
  251
 71
 -42
 72
 -40
 73
 -45
  0
VERTEX
  8
72OFGO3D01_CO__GRIFF__F14
 10
0.0
 20
0.0
 30
0.0
 70
   128
 62
  251
 71
 -45
 72
 -47
 73
 -50
  0
VERTEX
  8
72OFGO3D01_CO__GRIFF__F14
 10
0.0
 20
0.0
 30
0.0
 70
   128
 62
  251
 71
 -45
 72
  50
 73
  50
  0
VERTEX
  8
72OFGO3D01_CO__GRIFF__F14
 10
0.0
 20
0.0
 30
0.0
 70
   128
 62
  251
 71
 -50
 72
 -50
 73
 -47
  0
VERTEX
  8
72OFGO3D01_CO__GRIFF__F14
 10
0.0
 20
0.0
 30
0.0
 70
   128
 62
  251
 71
 -50
 72
 -47
 73
 -45
  0
VERTEX
  8
72OFGO3D01_CO__GRIFF__F14
 10
0.0
 20
0.0
 30
0.0
 70
   128
 62
  251
 71
 -45
 72
  40
 73
 -47
  0
VERTEX
  8
72OFGO3D01_CO__GRIFF__F14
 10
0.0
 20
0.0
 30
0.0
 70
   128
 62
  251
 71
 -45
 72
 -47
 73
 -47
  0
VERTEX
  8
72OFGO3D01_CO__GRIFF__F14
 10
0.0
 20
0.0
 30
0.0
 70
   128
 62
  251
 71
 -47
 72
 -47
 73
 -40
  0
VERTEX
  8
72OFGO3D01_CO__GRIFF__F14
 10
0.0
 20
0.0
 30
0.0
 70
   128
 62
  251
 71
 -47
 72
 -40
 73
 -45
  0
VERTEX
  8
72OFGO3D01_CO__GRIFF__F14
 10
0.0
 20
0.0
 30
0.0
 70
   128
 62
  251
 71
 -50
 72
 -40
 73
 -45
  0
VERTEX
  8
72OFGO3D01_CO__GRIFF__F14
 10
0.0
 20
0.0
 30
0.0
 70
   128
 62
  251
 71
 -50
 72
  45
 73
  45
  0
VERTEX
  8
72OFGO3D01_CO__GRIFF__F14
 10
0.0
 20
0.0
 30
0.0
 70
   128
 62
  251
 71
 -45
 72
 -45
 73
 -40
  0
VERTEX
  8
72OFGO3D01_CO__GRIFF__F14
 10
0.0
 20
0.0
 30
0.0
 70
   128
 62
  251
 71
 -45
 72
 -40
 73
 -50
  0
VERTEX
  8
72OFGO3D01_CO__GRIFF__F14
 10
0.0
 20
0.0
 30
0.0
 70
   128
 62
  251
 71
 -50
 72
  47
 73
 -40
  0
VERTEX
  8
72OFGO3D01_CO__GRIFF__F14
 10
0.0
 20
0.0
 30
0.0
 70
   128
 62
  251
 71
 -50
 72
 -40
 73
 -40
  0
VERTEX
  8
72OFGO3D01_CO__GRIFF__F14
 10
0.0
 20
0.0
 30
0.0
 70
   128
 62
  251
 71
 -40
 72
 -40
 73
 -47
  0
VERTEX
  8
72OFGO3D01_CO__GRIFF__F14
 10
0.0
 20
0.0
 30
0.0
 70
   128
 62
  251
 71
 -40
 72
 -47
 73
 -50
  0
VERTEX
  8
72OFGO3D01_CO__GRIFF__F14
 10
0.0
 20
0.0
 30
0.0
 70
   128
 62
  251
 71
 -47
 72
 -52
 73
 -34
  0
VERTEX
  8
72OFGO3D01_CO__GRIFF__F14
 10
0.0
 20
0.0
 30
0.0
 70
   128
 62
  251
 71
 -47
 72
  34
 73
  34
  0
VERTEX
  8
72OFGO3D01_CO__GRIFF__F14
 10
0.0
 20
0.0
 30
0.0
 70
   128
 62
  251
 71
 -34
 72
 -34
 73
 -52
  0
VERTEX
  8
72OFGO3D01_CO__GRIFF__F14
 10
0.0
 20
0.0
 30
0.0
 70
   128
 62
  251
 71
 -34
 72
 -52
 73
 -47
  0
VERTEX
  8
72OFGO3D01_CO__GRIFF__F14
 10
0.0
 20
0.0
 30
0.0
 70
   128
 62
  251
 71
 -47
 72
  50
 73
 -52
  0
VERTEX
  8
72OFGO3D01_CO__GRIFF__F14
 10
0.0
 20
0.0
 30
0.0
 70
   128
 62
  251
 71
 -47
 72
 -52
 73
 -52
  0
VERTEX
  8
72OFGO3D01_CO__GRIFF__F14
 10
0.0
 20
0.0
 30
0.0
 70
   128
 62
  251
 71
 -52
 72
 -52
 73
 -50
  0
VERTEX
  8
72OFGO3D01_CO__GRIFF__F14
 10
0.0
 20
0.0
 30
0.0
 70
   128
 62
  251
 71
 -52
 72
 -50
 73
 -47
  0
VERTEX
  8
72OFGO3D01_CO__GRIFF__F14
 10
0.0
 20
0.0
 30
0.0
 70
   128
 62
  251
 71
 -34
 72
 -50
 73
 -47
  0
VERTEX
  8
72OFGO3D01_CO__GRIFF__F14
 10
0.0
 20
0.0
 30
0.0
 70
   128
 62
  251
 71
 -34
 72
  47
 73
  47
  0
VERTEX
  8
72OFGO3D01_CO__GRIFF__F14
 10
0.0
 20
0.0
 30
0.0
 70
   128
 62
  251
 71
 -47
 72
 -47
 73
 -50
  0
VERTEX
  8
72OFGO3D01_CO__GRIFF__F14
 10
0.0
 20
0.0
 30
0.0
 70
   128
 62
  251
 71
 -47
 72
 -50
 73
 -34
  0
VERTEX
  8
72OFGO3D01_CO__GRIFF__F14
 10
0.0
 20
0.0
 30
0.0
 70
   128
 62
  251
 71
 -34
 72
  52
 73
 -50
  0
VERTEX
  8
72OFGO3D01_CO__GRIFF__F14
 10
0.0
 20
0.0
 30
0.0
 70
   128
 62
  251
 71
 -34
 72
 -50
 73
 -50
  0
VERTEX
  8
72OFGO3D01_CO__GRIFF__F14
 10
0.0
 20
0.0
 30
0.0
 70
   128
 62
  251
 71
 -50
 72
 -50
 73
 -52
  0
VERTEX
  8
72OFGO3D01_CO__GRIFF__F14
 10
0.0
 20
0.0
 30
0.0
 70
   128
 62
  251
 71
 -50
 72
 -52
 73
 -34
  0
VERTEX
  8
72OFGO3D01_CO__GRIFF__F14
 10
0.0
 20
0.0
 30
0.0
 70
   128
 62
  251
 71
 -7
 72
 -42
 73
 -44
  0
VERTEX
  8
72OFGO3D01_CO__GRIFF__F14
 10
0.0
 20
0.0
 30
0.0
 70
   128
 62
  251
 71
 -7
 72
  44
 73
  44
  0
VERTEX
  8
72OFGO3D01_CO__GRIFF__F14
 10
0.0
 20
0.0
 30
0.0
 70
   128
 62
  251
 71
 -44
 72
 -44
 73
 -42
  0
VERTEX
  8
72OFGO3D01_CO__GRIFF__F14
 10
0.0
 20
0.0
 30
0.0
 70
   128
 62
  251
 71
 -44
 72
 -42
 73
 -7
  0
VERTEX
  8
72OFGO3D01_CO__GRIFF__F14
 10
0.0
 20
0.0
 30
0.0
 70
   128
 62
  251
 71
 -7
 72
  2
 73
 -42
  0
VERTEX
  8
72OFGO3D01_CO__GRIFF__F14
 10
0.0
 20
0.0
 30
0.0
 70
   128
 62
  251
 71
 -7
 72
 -42
 73
 -42
  0
VERTEX
  8
72OFGO3D01_CO__GRIFF__F14
 10
0.0
 20
0.0
 30
0.0
 70
   128
 62
  251
 71
 -42
 72
 -42
 73
 -2
  0
VERTEX
  8
72OFGO3D01_CO__GRIFF__F14
 10
0.0
 20
0.0
 30
0.0
 70
   128
 62
  251
 71
 -42
 72
 -2
 73
 -7
  0
VERTEX
  8
72OFGO3D01_CO__GRIFF__F14
 10
0.0
 20
0.0
 30
0.0
 70
   128
 62
  251
 71
 -44
 72
 -2
 73
 -7
  0
VERTEX
  8
72OFGO3D01_CO__GRIFF__F14
 10
0.0
 20
0.0
 30
0.0
 70
   128
 62
  251
 71
 -44
 72
  7
 73
  7
  0
VERTEX
  8
72OFGO3D01_CO__GRIFF__F14
 10
0.0
 20
0.0
 30
0.0
 70
   128
 62
  251
 71
 -7
 72
 -7
 73
 -2
  0
VERTEX
  8
72OFGO3D01_CO__GRIFF__F14
 10
0.0
 20
0.0
 30
0.0
 70
   128
 62
  251
 71
 -7
 72
 -2
 73
 -44
  0
VERTEX
  8
72OFGO3D01_CO__GRIFF__F14
 10
0.0
 20
0.0
 30
0.0
 70
   128
 62
  251
 71
 -44
 72
  42
 73
 -2
  0
VERTEX
  8
72OFGO3D01_CO__GRIFF__F14
 10
0.0
 20
0.0
 30
0.0
 70
   128
 62
  251
 71
 -44
 72
 -2
 73
 -2
  0
VERTEX
  8
72OFGO3D01_CO__GRIFF__F14
 10
0.0
 20
0.0
 30
0.0
 70
   128
 62
  251
 71
 -2
 72
 -2
 73
 -42
  0
VERTEX
  8
72OFGO3D01_CO__GRIFF__F14
 10
0.0
 20
0.0
 30
0.0
 70
   128
 62
  251
 71
 -2
 72
 -42
 73
 -44
  0
SEQEND
  0
ENDBLK
  8
0
  0
BLOCK
  8
0
  2
OB__000022
 70
    64
 10
0.0
 20
0.0
 30
0.0
  3
OB__000022
  0
INSERT
  8
72OFGO3D01_CO__GRIFF__F14
  2
OB__000021
 10
0.216
 20
-0.599
 30
0.166
 41
1
 42
1
 43
1
  0
ENDBLK
  8
0
  0
BLOCK
  8
0
  2
OB__000023
 70
    64
 10
0.0
 20
0.0
 30
0.0
  3
OB__000023
  0
INSERT
  8
72OFGO3D01_ANY
  2
OB__000018
 10
0.0
 20
0.0
 30
0.0
  0
INSERT
  8
72OFGO3D01_G__FS2
  2
OB__000020
 10
0.0
 20
0.0
 30
0.0
  0
INSERT
  8
72OFGO3D01_CO__GRIFF__F14
  2
OB__000022
 10
0.0
 20
0.0
 30
0.0
  0
ENDBLK
  8
0
  0
BLOCK
  8
0
  2
OB__000024
 70
    64
 10
0.0
 20
0.0
 30
0.0
  3
OB__000024
  0
INSERT
  8
72OFGO3D01_ANY
  2
OB__000017
 10
0.001
 20
-0.58
 30
0.217
 41
1
 42
1
 43
1
  0
ENDBLK
  8
0
  0
BLOCK
  8
0
  2
OB__000025
 70
    64
 10
0.0
 20
0.0
 30
0.0
  3
OB__000025
  0
INSERT
  8
72OFGO3D01_G__FS2
  2
OB__000019
 10
0.001
 20
-0.599
 30
0.217
 41
0.428
 42
1
 43
0.148
  0
ENDBLK
  8
0
  0
BLOCK
  8
0
  2
OB__000026
 70
    64
 10
0.0
 20
0.0
 30
0.0
  3
OB__000026
  0
INSERT
  8
72OFGO3D01_CO__GRIFF__F14
  2
OB__000021
 10
0.216
 20
-0.599
 30
0.316
 41
1
 42
1
 43
1
  0
ENDBLK
  8
0
  0
BLOCK
  8
0
  2
OB__000027
 70
    64
 10
0.0
 20
0.0
 30
0.0
  3
OB__000027
  0
INSERT
  8
72OFGO3D01_ANY
  2
OB__000024
 10
0.0
 20
0.0
 30
0.0
  0
INSERT
  8
72OFGO3D01_G__FS2
  2
OB__000025
 10
0.0
 20
0.0
 30
0.0
  0
INSERT
  8
72OFGO3D01_CO__GRIFF__F14
  2
OB__000026
 10
0.0
 20
0.0
 30
0.0
  0
ENDBLK
  8
0
  0
BLOCK
  8
0
  2
OB__000028
 70
    64
 10
0.0
 20
0.0
 30
0.0
  3
OB__000028
  0
INSERT
  8
72OFGO3D01_ANY
  2
OB__000017
 10
0.001
 20
-0.58
 30
0.367
 41
1
 42
1
 43
1
  0
ENDBLK
  8
0
  0
BLOCK
  8
0
  2
OB__000029
 70
    64
 10
0.0
 20
0.0
 30
0.0
  3
OB__000029
  0
INSERT
  8
72OFGO3D01_G__FS2
  2
OB__000019
 10
0.001
 20
-0.599
 30
0.367
 41
0.428
 42
1
 43
0.148
  0
ENDBLK
  8
0
  0
BLOCK
  8
0
  2
OB__000030
 70
    64
 10
0.0
 20
0.0
 30
0.0
  3
OB__000030
  0
INSERT
  8
72OFGO3D01_CO__GRIFF__F14
  2
OB__000021
 10
0.216
 20
-0.599
 30
0.466
 41
1
 42
1
 43
1
  0
ENDBLK
  8
0
  0
BLOCK
  8
0
  2
OB__000031
 70
    64
 10
0.0
 20
0.0
 30
0.0
  3
OB__000031
  0
INSERT
  8
72OFGO3D01_ANY
  2
OB__000028
 10
0.0
 20
0.0
 30
0.0
  0
INSERT
  8
72OFGO3D01_G__FS2
  2
OB__000029
 10
0.0
 20
0.0
 30
0.0
  0
INSERT
  8
72OFGO3D01_CO__GRIFF__F14
  2
OB__000030
 10
0.0
 20
0.0
 30
0.0
  0
ENDBLK
  8
0
  0
BLOCK
  8
0
  2
OB__000032
 70
    64
 10
0.0
 20
0.0
 30
0.0
  3
OB__000032
  0
INSERT
  8
72OFGO3D01_G__FS3
  2
OB__000001
 10
0.0
 20
0.0
 30
0.0
  0
INSERT
  8
72OFGO3D01_G__FS3
  2
OB__000003
 10
0.0
 20
0.0
 30
0.0
  0
INSERT
  8
72OFGO3D01_G__FS3
  2
OB__000005
 10
0.0
 20
0.0
 30
0.0
  0
INSERT
  8
72OFGO3D01_G__FS3
  2
OB__000007
 10
0.0
 20
0.0
 30
0.0
  0
INSERT
  8
72OFGO3D01_ANY
  2
OB__000009
 10
0.0
 20
0.0
 30
0.0
  0
INSERT
  8
72OFGO3D01_ANY
  2
OB__000010
 10
0.0
 20
0.0
 30
0.0
  0
INSERT
  8
72OFGO3D01_ANY
  2
OB__000011
 10
0.0
 20
0.0
 30
0.0
  0
INSERT
  8
72OFGO3D01_ANY
  2
OB__000012
 10
0.0
 20
0.0
 30
0.0
  0
INSERT
  8
72OFGO3D01_ANY
  2
OB__000014
 10
0.0
 20
0.0
 30
0.0
  0
INSERT
  8
72OFGO3D01_ANY
  2
OB__000016
 10
0.0
 20
0.0
 30
0.0
  0
INSERT
  8
72OFGO3D01_ANY
  2
OB__000023
 10
0.0
 20
0.0
 30
0.0
  0
INSERT
  8
72OFGO3D01_ANY
  2
OB__000027
 10
0.0
 20
0.0
 30
0.0
  0
INSERT
  8
72OFGO3D01_ANY
  2
OB__000031
 10
0.0
 20
0.0
 30
0.0
  0
ENDBLK
  8
0
  0
BLOCK
  8
0
  2
OB__000033
 70
    64
 10
0.0
 20
0.0
 30
0.0
  3
OB__000033
  0
INSERT
  8
72OFGO3D01_ANY
  2
OB__000032
 10
0.0
 20
0.0
 30
0.0
  0
ENDBLK
  8
0
  0
BLOCK
  8
0
  2
OB2D__000034
 70
    64
 10
0.0
 20
0.0
 30
0.0
  3
OB2D__000034
  0
CIRCLE
  8
72_GSX_CO_D2SNAP
  6
CONTINUOUS
 10
0
 20
0
 30
0
 40
0.035
  0
LINE
  8
72_GSX_CO_D2SNAP
  6
CONTINUOUS
 10
-0.075
 20
0
 30
0
 11
0.075
 21
0
 31
0
  0
LINE
  8
72_GSX_CO_D2SNAP
  6
CONTINUOUS
 10
0
 20
-0.075
 30
0
 11
0
 21
0.075
 31
0
  0
LINE
  8
72_GSX_CO_D2_GRAPHIK
  6
CONTINUOUS
 10
0.411
 20
-0.621233
 30
0
 11
0.40316
 21
-0.621233
 31
0
  0
LINE
  8
72_GSX_CO_D2_GRAPHIK
  6
CONTINUOUS
 10
0.411
 20
-0.671233
 30
0
 11
0.411
 21
-0.621233
 31
0
  0
LINE
  8
72_GSX_CO_D2_GRAPHIK
  6
CONTINUOUS
 10
0.40316
 20
-0.621233
 30
0
 11
0.40316
 21
-0.646233
 31
0
  0
LINE
  8
72_GSX_CO_D2_GRAPHIK
  6
CONTINUOUS
 10
0.019
 20
-0.671233
 30
0
 11
0.411
 21
-0.671233
 31
0
  0
LINE
  8
72_GSX_CO_D2_GRAPHIK
  6
CONTINUOUS
 10
0.40316
 20
-0.646233
 30
0
 11
0.02684
 21
-0.646233
 31
0
  0
LINE
  8
72_GSX_CO_D2_GRAPHIK
  6
CONTINUOUS
 10
0.02684
 20
-0.646233
 30
0
 11
0.02684
 21
-0.621233
 31
0
  0
LINE
  8
72_GSX_CO_D2_GRAPHIK
  6
CONTINUOUS
 10
0.02684
 20
-0.621233
 30
0
 11
0.019
 21
-0.621233
 31
0
  0
LINE
  8
72_GSX_CO_D2_GRAPHIK
  6
CONTINUOUS
 10
0.019
 20
-0.621233
 30
0
 11
0.019
 21
-0.671233
 31
0
  0
LINE
  8
72_GSX_CO_D2_GRAPHIK
  6
CONTINUOUS
 10
0
 20
0
 30
0
 11
0
 21
-0.6
 31
0
  0
LINE
  8
72_GSX_CO_D2_GRAPHIK
  6
CONTINUOUS
 10
0
 20
-0.6
 30
0
 11
0.43
 21
-0.6
 31
0
  0
LINE
  8
72_GSX_CO_D2_GRAPHIK
  6
CONTINUOUS
 10
0.43
 20
-0.6
 30
0
 11
0.43
 21
0
 31
0
  0
LINE
  8
72_GSX_CO_D2_GRAPHIK
  6
CONTINUOUS
 10
0.43
 20
0
 30
0
 11
0
 21
0
 31
0
  0
LINE
  8
72_GSX_CO_D2_GRAPHIK
  6
CONTINUOUS
 10
0
 20
0
 30
0
 11
0
 21
-0.6
 31
0
  0
LINE
  8
72_GSX_CO_D2_GRAPHIK
  6
CONTINUOUS
 10
0
 20
-0.6
 30
0
 11
0.43
 21
-0.6
 31
0
  0
LINE
  8
72_GSX_CO_D2_GRAPHIK
  6
CONTINUOUS
 10
0.43
 20
-0.6
 30
0
 11
0.43
 21
0
 31
0
  0
LINE
  8
72_GSX_CO_D2_GRAPHIK
  6
CONTINUOUS
 10
0.43
 20
0
 30
0
 11
0
 21
0
 31
0
  0
POLYLINE
  8
72_GSX_CO_D2_TEXT_DE
 66
     1
 70
     0
 10
0.0
 20
0.0
 30
0.0
  0
VERTEX
  8
72_GSX_CO_D2_TEXT_DE
 10
0.0372797
 20
-0.524127
 30
0
  0
VERTEX
  8
72_GSX_CO_D2_TEXT_DE
 10
0.020613
 20
-0.55746
 30
0
  0
VERTEX
  8
72_GSX_CO_D2_TEXT_DE
 10
0.045613
 20
-0.55746
 30
0
  0
SEQEND
  0
POLYLINE
  8
72_GSX_CO_D2_TEXT_DE
 66
     1
 70
     0
 10
0.0
 20
0.0
 30
0.0
  0
VERTEX
  8
72_GSX_CO_D2_TEXT_DE
 10
0.0372797
 20
-0.524127
 30
0
  0
VERTEX
  8
72_GSX_CO_D2_TEXT_DE
 10
0.0372797
 20
-0.574127
 30
0
  0
SEQEND
  0
POLYLINE
  8
72_GSX_CO_D2_TEXT_DE
 66
     1
 70
     0
 10
0.0
 20
0.0
 30
0.0
  0
VERTEX
  8
72_GSX_CO_D2_TEXT_DE
 10
0.0572797
 20
-0.524127
 30
0
  0
VERTEX
  8
72_GSX_CO_D2_TEXT_DE
 10
0.075613
 20
-0.524127
 30
0
  0
VERTEX
  8
72_GSX_CO_D2_TEXT_DE
 10
0.065613
 20
-0.543175
 30
0
  0
VERTEX
  8
72_GSX_CO_D2_TEXT_DE
 10
0.070613
 20
-0.543175
 30
0
  0
VERTEX
  8
72_GSX_CO_D2_TEXT_DE
 10
0.0739463
 20
-0.545556
 30
0
  0
VERTEX
  8
72_GSX_CO_D2_TEXT_DE
 10
0.075613
 20
-0.547937
 30
0
  0
VERTEX
  8
72_GSX_CO_D2_TEXT_DE
 10
0.0772797
 20
-0.555079
 30
0
  0
VERTEX
  8
72_GSX_CO_D2_TEXT_DE
 10
0.0772797
 20
-0.559841
 30
0
  0
VERTEX
  8
72_GSX_CO_D2_TEXT_DE
 10
0.075613
 20
-0.566984
 30
0
  0
VERTEX
  8
72_GSX_CO_D2_TEXT_DE
 10
0.0722797
 20
-0.571746
 30
0
  0
VERTEX
  8
72_GSX_CO_D2_TEXT_DE
 10
0.0672797
 20
-0.574127
 30
0
  0
VERTEX
  8
72_GSX_CO_D2_TEXT_DE
 10
0.0622797
 20
-0.574127
 30
0
  0
VERTEX
  8
72_GSX_CO_D2_TEXT_DE
 10
0.0572797
 20
-0.571746
 30
0
  0
VERTEX
  8
72_GSX_CO_D2_TEXT_DE
 10
0.055613
 20
-0.569365
 30
0
  0
VERTEX
  8
72_GSX_CO_D2_TEXT_DE
 10
0.0539463
 20
-0.564603
 30
0
  0
SEQEND
  0
POLYLINE
  8
72_GSX_CO_D2_TEXT_DE
 66
     1
 70
     0
 10
0.0
 20
0.0
 30
0.0
  0
VERTEX
  8
72_GSX_CO_D2_TEXT_DE
 10
0.0972797
 20
-0.524127
 30
0
  0
VERTEX
  8
72_GSX_CO_D2_TEXT_DE
 10
0.0922797
 20
-0.526508
 30
0
  0
VERTEX
  8
72_GSX_CO_D2_TEXT_DE
 10
0.0889463
 20
-0.533651
 30
0
  0
VERTEX
  8
72_GSX_CO_D2_TEXT_DE
 10
0.0872797
 20
-0.545556
 30
0
  0
VERTEX
  8
72_GSX_CO_D2_TEXT_DE
 10
0.0872797
 20
-0.552698
 30
0
  0
VERTEX
  8
72_GSX_CO_D2_TEXT_DE
 10
0.0889463
 20
-0.564603
 30
0
  0
VERTEX
  8
72_GSX_CO_D2_TEXT_DE
 10
0.0922797
 20
-0.571746
 30
0
  0
VERTEX
  8
72_GSX_CO_D2_TEXT_DE
 10
0.0972797
 20
-0.574127
 30
0
  0
VERTEX
  8
72_GSX_CO_D2_TEXT_DE
 10
0.100613
 20
-0.574127
 30
0
  0
VERTEX
  8
72_GSX_CO_D2_TEXT_DE
 10
0.105613
 20
-0.571746
 30
0
  0
VERTEX
  8
72_GSX_CO_D2_TEXT_DE
 10
0.108946
 20
-0.564603
 30
0
  0
VERTEX
  8
72_GSX_CO_D2_TEXT_DE
 10
0.110613
 20
-0.552698
 30
0
  0
VERTEX
  8
72_GSX_CO_D2_TEXT_DE
 10
0.110613
 20
-0.545556
 30
0
  0
VERTEX
  8
72_GSX_CO_D2_TEXT_DE
 10
0.108946
 20
-0.533651
 30
0
  0
VERTEX
  8
72_GSX_CO_D2_TEXT_DE
 10
0.105613
 20
-0.526508
 30
0
  0
VERTEX
  8
72_GSX_CO_D2_TEXT_DE
 10
0.100613
 20
-0.524127
 30
0
  0
VERTEX
  8
72_GSX_CO_D2_TEXT_DE
 10
0.0972797
 20
-0.524127
 30
0
  0
SEQEND
  0
POLYLINE
  8
72_GSX_CO_D2_TEXT_DE
 66
     1
 70
     0
 10
0.0
 20
0.0
 30
0.0
  0
VERTEX
  8
72_GSX_CO_D2_TEXT_DE
 10
0.120613
 20
-0.540794
 30
0
  0
VERTEX
  8
72_GSX_CO_D2_TEXT_DE
 10
0.138946
 20
-0.574127
 30
0
  0
SEQEND
  0
POLYLINE
  8
72_GSX_CO_D2_TEXT_DE
 66
     1
 70
     0
 10
0.0
 20
0.0
 30
0.0
  0
VERTEX
  8
72_GSX_CO_D2_TEXT_DE
 10
0.138946
 20
-0.540794
 30
0
  0
VERTEX
  8
72_GSX_CO_D2_TEXT_DE
 10
0.120613
 20
-0.574127
 30
0
  0
SEQEND
  0
POLYLINE
  8
72_GSX_CO_D2_TEXT_DE
 66
     1
 70
     0
 10
0.0
 20
0.0
 30
0.0
  0
VERTEX
  8
72_GSX_CO_D2_TEXT_DE
 10
0.170613
 20
-0.53127
 30
0
  0
VERTEX
  8
72_GSX_CO_D2_TEXT_DE
 10
0.168946
 20
-0.526508
 30
0
  0
VERTEX
  8
72_GSX_CO_D2_TEXT_DE
 10
0.163946
 20
-0.524127
 30
0
  0
VERTEX
  8
72_GSX_CO_D2_TEXT_DE
 10
0.160613
 20
-0.524127
 30
0
  0
VERTEX
  8
72_GSX_CO_D2_TEXT_DE
 10
0.155613
 20
-0.526508
 30
0
  0
VERTEX
  8
72_GSX_CO_D2_TEXT_DE
 10
0.15228
 20
-0.533651
 30
0
  0
VERTEX
  8
72_GSX_CO_D2_TEXT_DE
 10
0.150613
 20
-0.545556
 30
0
  0
VERTEX
  8
72_GSX_CO_D2_TEXT_DE
 10
0.150613
 20
-0.55746
 30
0
  0
VERTEX
  8
72_GSX_CO_D2_TEXT_DE
 10
0.15228
 20
-0.566984
 30
0
  0
VERTEX
  8
72_GSX_CO_D2_TEXT_DE
 10
0.155613
 20
-0.571746
 30
0
  0
VERTEX
  8
72_GSX_CO_D2_TEXT_DE
 10
0.160613
 20
-0.574127
 30
0
  0
VERTEX
  8
72_GSX_CO_D2_TEXT_DE
 10
0.16228
 20
-0.574127
 30
0
  0
VERTEX
  8
72_GSX_CO_D2_TEXT_DE
 10
0.16728
 20
-0.571746
 30
0
  0
VERTEX
  8
72_GSX_CO_D2_TEXT_DE
 10
0.170613
 20
-0.566984
 30
0
  0
VERTEX
  8
72_GSX_CO_D2_TEXT_DE
 10
0.17228
 20
-0.559841
 30
0
  0
VERTEX
  8
72_GSX_CO_D2_TEXT_DE
 10
0.17228
 20
-0.55746
 30
0
  0
VERTEX
  8
72_GSX_CO_D2_TEXT_DE
 10
0.170613
 20
-0.550317
 30
0
  0
VERTEX
  8
72_GSX_CO_D2_TEXT_DE
 10
0.16728
 20
-0.545556
 30
0
  0
VERTEX
  8
72_GSX_CO_D2_TEXT_DE
 10
0.16228
 20
-0.543175
 30
0
  0
VERTEX
  8
72_GSX_CO_D2_TEXT_DE
 10
0.160613
 20
-0.543175
 30
0
  0
VERTEX
  8
72_GSX_CO_D2_TEXT_DE
 10
0.155613
 20
-0.545556
 30
0
  0
VERTEX
  8
72_GSX_CO_D2_TEXT_DE
 10
0.15228
 20
-0.550317
 30
0
  0
VERTEX
  8
72_GSX_CO_D2_TEXT_DE
 10
0.150613
 20
-0.55746
 30
0
  0
SEQEND
  0
POLYLINE
  8
72_GSX_CO_D2_TEXT_DE
 66
     1
 70
     0
 10
0.0
 20
0.0
 30
0.0
  0
VERTEX
  8
72_GSX_CO_D2_TEXT_DE
 10
0.19228
 20
-0.524127
 30
0
  0
VERTEX
  8
72_GSX_CO_D2_TEXT_DE
 10
0.18728
 20
-0.526508
 30
0
  0
VERTEX
  8
72_GSX_CO_D2_TEXT_DE
 10
0.183946
 20
-0.533651
 30
0
  0
VERTEX
  8
72_GSX_CO_D2_TEXT_DE
 10
0.18228
 20
-0.545556
 30
0
  0
VERTEX
  8
72_GSX_CO_D2_TEXT_DE
 10
0.18228
 20
-0.552698
 30
0
  0
VERTEX
  8
72_GSX_CO_D2_TEXT_DE
 10
0.183946
 20
-0.564603
 30
0
  0
VERTEX
  8
72_GSX_CO_D2_TEXT_DE
 10
0.18728
 20
-0.571746
 30
0
  0
VERTEX
  8
72_GSX_CO_D2_TEXT_DE
 10
0.19228
 20
-0.574127
 30
0
  0
VERTEX
  8
72_GSX_CO_D2_TEXT_DE
 10
0.195613
 20
-0.574127
 30
0
  0
VERTEX
  8
72_GSX_CO_D2_TEXT_DE
 10
0.200613
 20
-0.571746
 30
0
  0
VERTEX
  8
72_GSX_CO_D2_TEXT_DE
 10
0.203946
 20
-0.564603
 30
0
  0
VERTEX
  8
72_GSX_CO_D2_TEXT_DE
 10
0.205613
 20
-0.552698
 30
0
  0
VERTEX
  8
72_GSX_CO_D2_TEXT_DE
 10
0.205613
 20
-0.545556
 30
0
  0
VERTEX
  8
72_GSX_CO_D2_TEXT_DE
 10
0.203946
 20
-0.533651
 30
0
  0
VERTEX
  8
72_GSX_CO_D2_TEXT_DE
 10
0.200613
 20
-0.526508
 30
0
  0
VERTEX
  8
72_GSX_CO_D2_TEXT_DE
 10
0.195613
 20
-0.524127
 30
0
  0
VERTEX
  8
72_GSX_CO_D2_TEXT_DE
 10
0.19228
 20
-0.524127
 30
0
  0
SEQEND
  0
POLYLINE
  8
72_GSX_CO_D2_TEXT_DE
 66
     1
 70
     0
 10
0.0
 20
0.0
 30
0.0
  0
VERTEX
  8
72_GSX_CO_D2_TEXT_DE
 10
0.225613
 20
-0.524127
 30
0
  0
VERTEX
  8
72_GSX_CO_D2_TEXT_DE
 10
0.220613
 20
-0.526508
 30
0
  0
VERTEX
  8
72_GSX_CO_D2_TEXT_DE
 10
0.21728
 20
-0.533651
 30
0
  0
VERTEX
  8
72_GSX_CO_D2_TEXT_DE
 10
0.215613
 20
-0.545556
 30
0
  0
VERTEX
  8
72_GSX_CO_D2_TEXT_DE
 10
0.215613
 20
-0.552698
 30
0
  0
VERTEX
  8
72_GSX_CO_D2_TEXT_DE
 10
0.21728
 20
-0.564603
 30
0
  0
VERTEX
  8
72_GSX_CO_D2_TEXT_DE
 10
0.220613
 20
-0.571746
 30
0
  0
VERTEX
  8
72_GSX_CO_D2_TEXT_DE
 10
0.225613
 20
-0.574127
 30
0
  0
VERTEX
  8
72_GSX_CO_D2_TEXT_DE
 10
0.228946
 20
-0.574127
 30
0
  0
VERTEX
  8
72_GSX_CO_D2_TEXT_DE
 10
0.233946
 20
-0.571746
 30
0
  0
VERTEX
  8
72_GSX_CO_D2_TEXT_DE
 10
0.23728
 20
-0.564603
 30
0
  0
VERTEX
  8
72_GSX_CO_D2_TEXT_DE
 10
0.238946
 20
-0.552698
 30
0
  0
VERTEX
  8
72_GSX_CO_D2_TEXT_DE
 10
0.238946
 20
-0.545556
 30
0
  0
VERTEX
  8
72_GSX_CO_D2_TEXT_DE
 10
0.23728
 20
-0.533651
 30
0
  0
VERTEX
  8
72_GSX_CO_D2_TEXT_DE
 10
0.233946
 20
-0.526508
 30
0
  0
VERTEX
  8
72_GSX_CO_D2_TEXT_DE
 10
0.228946
 20
-0.524127
 30
0
  0
VERTEX
  8
72_GSX_CO_D2_TEXT_DE
 10
0.225613
 20
-0.524127
 30
0
  0
SEQEND
  0
POLYLINE
  8
72_GSX_CO_D2_TEXT_DE
 66
     1
 70
     0
 10
0.0
 20
0.0
 30
0.0
  0
VERTEX
  8
72_GSX_CO_D2_TEXT_DE
 10
0.248946
 20
-0.540794
 30
0
  0
VERTEX
  8
72_GSX_CO_D2_TEXT_DE
 10
0.26728
 20
-0.574127
 30
0
  0
SEQEND
  0
POLYLINE
  8
72_GSX_CO_D2_TEXT_DE
 66
     1
 70
     0
 10
0.0
 20
0.0
 30
0.0
  0
VERTEX
  8
72_GSX_CO_D2_TEXT_DE
 10
0.26728
 20
-0.540794
 30
0
  0
VERTEX
  8
72_GSX_CO_D2_TEXT_DE
 10
0.248946
 20
-0.574127
 30
0
  0
SEQEND
  0
POLYLINE
  8
72_GSX_CO_D2_TEXT_DE
 66
     1
 70
     0
 10
0.0
 20
0.0
 30
0.0
  0
VERTEX
  8
72_GSX_CO_D2_TEXT_DE
 10
0.29728
 20
-0.524127
 30
0
  0
VERTEX
  8
72_GSX_CO_D2_TEXT_DE
 10
0.280613
 20
-0.524127
 30
0
  0
VERTEX
  8
72_GSX_CO_D2_TEXT_DE
 10
0.278946
 20
-0.545556
 30
0
  0
VERTEX
  8
72_GSX_CO_D2_TEXT_DE
 10
0.280613
 20
-0.543175
 30
0
  0
VERTEX
  8
72_GSX_CO_D2_TEXT_DE
 10
0.285613
 20
-0.540794
 30
0
  0
VERTEX
  8
72_GSX_CO_D2_TEXT_DE
 10
0.290613
 20
-0.540794
 30
0
  0
VERTEX
  8
72_GSX_CO_D2_TEXT_DE
 10
0.295613
 20
-0.543175
 30
0
  0
VERTEX
  8
72_GSX_CO_D2_TEXT_DE
 10
0.298946
 20
-0.547937
 30
0
  0
VERTEX
  8
72_GSX_CO_D2_TEXT_DE
 10
0.300613
 20
-0.555079
 30
0
  0
VERTEX
  8
72_GSX_CO_D2_TEXT_DE
 10
0.300613
 20
-0.559841
 30
0
  0
VERTEX
  8
72_GSX_CO_D2_TEXT_DE
 10
0.298946
 20
-0.566984
 30
0
  0
VERTEX
  8
72_GSX_CO_D2_TEXT_DE
 10
0.295613
 20
-0.571746
 30
0
  0
VERTEX
  8
72_GSX_CO_D2_TEXT_DE
 10
0.290613
 20
-0.574127
 30
0
  0
VERTEX
  8
72_GSX_CO_D2_TEXT_DE
 10
0.285613
 20
-0.574127
 30
0
  0
VERTEX
  8
72_GSX_CO_D2_TEXT_DE
 10
0.280613
 20
-0.571746
 30
0
  0
VERTEX
  8
72_GSX_CO_D2_TEXT_DE
 10
0.278946
 20
-0.569365
 30
0
  0
VERTEX
  8
72_GSX_CO_D2_TEXT_DE
 10
0.27728
 20
-0.564603
 30
0
  0
SEQEND
  0
POLYLINE
  8
72_GSX_CO_D2_TEXT_DE
 66
     1
 70
     0
 10
0.0
 20
0.0
 30
0.0
  0
VERTEX
  8
72_GSX_CO_D2_TEXT_DE
 10
0.32728
 20
-0.524127
 30
0
  0
VERTEX
  8
72_GSX_CO_D2_TEXT_DE
 10
0.310613
 20
-0.55746
 30
0
  0
VERTEX
  8
72_GSX_CO_D2_TEXT_DE
 10
0.335613
 20
-0.55746
 30
0
  0
SEQEND
  0
POLYLINE
  8
72_GSX_CO_D2_TEXT_DE
 66
     1
 70
     0
 10
0.0
 20
0.0
 30
0.0
  0
VERTEX
  8
72_GSX_CO_D2_TEXT_DE
 10
0.32728
 20
-0.524127
 30
0
  0
VERTEX
  8
72_GSX_CO_D2_TEXT_DE
 10
0.32728
 20
-0.574127
 30
0
  0
SEQEND
  0
POLYLINE
  8
72_GSX_CO_D2_TEXT_DE
 66
     1
 70
     0
 10
0.0
 20
0.0
 30
0.0
  0
VERTEX
  8
72_GSX_CO_D2_TEXT_DE
 10
0.345613
 20
-0.536032
 30
0
  0
VERTEX
  8
72_GSX_CO_D2_TEXT_DE
 10
0.345613
 20
-0.533651
 30
0
  0
VERTEX
  8
72_GSX_CO_D2_TEXT_DE
 10
0.34728
 20
-0.528889
 30
0
  0
VERTEX
  8
72_GSX_CO_D2_TEXT_DE
 10
0.348946
 20
-0.526508
 30
0
  0
VERTEX
  8
72_GSX_CO_D2_TEXT_DE
 10
0.35228
 20
-0.524127
 30
0
  0
VERTEX
  8
72_GSX_CO_D2_TEXT_DE
 10
0.358946
 20
-0.524127
 30
0
  0
VERTEX
  8
72_GSX_CO_D2_TEXT_DE
 10
0.36228
 20
-0.526508
 30
0
  0
VERTEX
  8
72_GSX_CO_D2_TEXT_DE
 10
0.363946
 20
-0.528889
 30
0
  0
VERTEX
  8
72_GSX_CO_D2_TEXT_DE
 10
0.365613
 20
-0.533651
 30
0
  0
VERTEX
  8
72_GSX_CO_D2_TEXT_DE
 10
0.365613
 20
-0.538413
 30
0
  0
VERTEX
  8
72_GSX_CO_D2_TEXT_DE
 10
0.363946
 20
-0.543175
 30
0
  0
VERTEX
  8
72_GSX_CO_D2_TEXT_DE
 10
0.360613
 20
-0.550317
 30
0
  0
VERTEX
  8
72_GSX_CO_D2_TEXT_DE
 10
0.343946
 20
-0.574127
 30
0
  0
VERTEX
  8
72_GSX_CO_D2_TEXT_DE
 10
0.36728
 20
-0.574127
 30
0
  0
SEQEND
  0
POLYLINE
  8
72_GSX_CO_D2_TEXT_DE
 66
     1
 70
     0
 10
0.0
 20
0.0
 30
0.0
  0
VERTEX
  8
72_GSX_CO_D2_TEXT_DE
 10
0.138081
 20
-0.420253
 30
0
  0
VERTEX
  8
72_GSX_CO_D2_TEXT_DE
 10
0.134748
 20
-0.434539
 30
0
  0
VERTEX
  8
72_GSX_CO_D2_TEXT_DE
 10
0.128081
 20
-0.444063
 30
0
  0
VERTEX
  8
72_GSX_CO_D2_TEXT_DE
 10
0.118081
 20
-0.448825
 30
0
  0
VERTEX
  8
72_GSX_CO_D2_TEXT_DE
 10
0.114748
 20
-0.448825
 30
0
  0
VERTEX
  8
72_GSX_CO_D2_TEXT_DE
 10
0.104748
 20
-0.444063
 30
0
  0
VERTEX
  8
72_GSX_CO_D2_TEXT_DE
 10
0.0980813
 20
-0.434539
 30
0
  0
VERTEX
  8
72_GSX_CO_D2_TEXT_DE
 10
0.094748
 20
-0.420253
 30
0
  0
VERTEX
  8
72_GSX_CO_D2_TEXT_DE
 10
0.094748
 20
-0.415491
 30
0
  0
VERTEX
  8
72_GSX_CO_D2_TEXT_DE
 10
0.0980813
 20
-0.401206
 30
0
  0
VERTEX
  8
72_GSX_CO_D2_TEXT_DE
 10
0.104748
 20
-0.391682
 30
0
  0
VERTEX
  8
72_GSX_CO_D2_TEXT_DE
 10
0.114748
 20
-0.38692
 30
0
  0
VERTEX
  8
72_GSX_CO_D2_TEXT_DE
 10
0.118081
 20
-0.38692
 30
0
  0
VERTEX
  8
72_GSX_CO_D2_TEXT_DE
 10
0.128081
 20
-0.391682
 30
0
  0
VERTEX
  8
72_GSX_CO_D2_TEXT_DE
 10
0.134748
 20
-0.401206
 30
0
  0
VERTEX
  8
72_GSX_CO_D2_TEXT_DE
 10
0.138081
 20
-0.420253
 30
0
  0
VERTEX
  8
72_GSX_CO_D2_TEXT_DE
 10
0.138081
 20
-0.444063
 30
0
  0
VERTEX
  8
72_GSX_CO_D2_TEXT_DE
 10
0.134748
 20
-0.467872
 30
0
  0
VERTEX
  8
72_GSX_CO_D2_TEXT_DE
 10
0.128081
 20
-0.482158
 30
0
  0
VERTEX
  8
72_GSX_CO_D2_TEXT_DE
 10
0.118081
 20
-0.48692
 30
0
  0
VERTEX
  8
72_GSX_CO_D2_TEXT_DE
 10
0.111415
 20
-0.48692
 30
0
  0
VERTEX
  8
72_GSX_CO_D2_TEXT_DE
 10
0.101415
 20
-0.482158
 30
0
  0
VERTEX
  8
72_GSX_CO_D2_TEXT_DE
 10
0.0980813
 20
-0.472634
 30
0
  0
SEQEND
  0
POLYLINE
  8
72_GSX_CO_D2_TEXT_DE
 66
     1
 70
     0
 10
0.0
 20
0.0
 30
0.0
  0
VERTEX
  8
72_GSX_CO_D2_TEXT_DE
 10
0.218081
 20
-0.38692
 30
0
  0
VERTEX
  8
72_GSX_CO_D2_TEXT_DE
 10
0.218081
 20
-0.48692
 30
0
  0
SEQEND
  0
POLYLINE
  8
72_GSX_CO_D2_TEXT_DE
 66
     1
 70
     0
 10
0.0
 20
0.0
 30
0.0
  0
VERTEX
  8
72_GSX_CO_D2_TEXT_DE
 10
0.264748
 20
-0.38692
 30
0
  0
VERTEX
  8
72_GSX_CO_D2_TEXT_DE
 10
0.264748
 20
-0.48692
 30
0
  0
SEQEND
  0
POLYLINE
  8
72_GSX_CO_D2_TEXT_DE
 66
     1
 70
     0
 10
0.0
 20
0.0
 30
0.0
  0
VERTEX
  8
72_GSX_CO_D2_TEXT_DE
 10
0.218081
 20
-0.434539
 30
0
  0
VERTEX
  8
72_GSX_CO_D2_TEXT_DE
 10
0.264748
 20
-0.434539
 30
0
  0
SEQEND
  0
POLYLINE
  8
72_GSX_CO_D2_TEXT_DE
 66
     1
 70
     0
 10
0.0
 20
0.0
 30
0.0
  0
VERTEX
  8
72_GSX_CO_D2_TEXT_DE
 10
0.291415
 20
-0.38692
 30
0
  0
VERTEX
  8
72_GSX_CO_D2_TEXT_DE
 10
0.291415
 20
-0.48692
 30
0
  0
SEQEND
  0
POLYLINE
  8
72_GSX_CO_D2_TEXT_DE
 66
     1
 70
     0
 10
0.0
 20
0.0
 30
0.0
  0
VERTEX
  8
72_GSX_CO_D2_TEXT_DE
 10
0.291415
 20
-0.38692
 30
0
  0
VERTEX
  8
72_GSX_CO_D2_TEXT_DE
 10
0.334748
 20
-0.38692
 30
0
  0
SEQEND
  0
POLYLINE
  8
72_GSX_CO_D2_TEXT_DE
 66
     1
 70
     0
 10
0.0
 20
0.0
 30
0.0
  0
VERTEX
  8
72_GSX_CO_D2_TEXT_DE
 10
0.291415
 20
-0.434539
 30
0
  0
VERTEX
  8
72_GSX_CO_D2_TEXT_DE
 10
0.318081
 20
-0.434539
 30
0
  0
SEQEND
  0
POLYLINE
  8
72_GSX_CO_D2_TEXT_DE
 66
     1
 70
     0
 10
0.0
 20
0.0
 30
0.0
  0
VERTEX
  8
72_GSX_CO_D2_TEXT_DE
 10
0.291415
 20
-0.48692
 30
0
  0
VERTEX
  8
72_GSX_CO_D2_TEXT_DE
 10
0.334748
 20
-0.48692
 30
0
  0
SEQEND
  0
ENDBLK
  8
0
  0
ENDSEC
  0
SECTION
  2
ENTITIES
  0
INSERT
  8
72OFGO3D01_ANY
  2
OB__000033
 10
0.0
 20
0.0
 30
0.0
  0
INSERT
  8
72OFGO2D01_GRAFIK
  2
OB2D__000034
 10
0.0
 20
0.0
 30
0.0
  0
ENDSEC
  0
EOF
